Oops, an error
Loading. Please wait.
We have an official Nervous Breakdown tab made by UG professional guitarists. Check out the tab »
×
520 views 3 this week
no commentswrite comment
1 2 3 4 5
x 3
add to favorites
×
Save as Personal and add changes to this tab that will be seen only by you. Learn more ›
×
You can save this tab as Personal to edit and correct it or add notes. All changes will be seen only by you. Learn more »
launch autoscroll
font size
0
reset
guitar tuner
backing track
0:00
0:00
edit
Autoscroll
slow
fast
+/-
esc
set tempo
stop
Author
Difficulty
Album: Nervous Breakdown
Artist: Black Flag
Genre: Hardcore Punk
Year: 1978

Hey guys! This is the bass tab of the album and it's 100% correct, but I have got just 
one doubt about "Fix Me" chorus.
Anyway, enjoy the Black Flag! 

01 Nervous Breakdown

Verse:

G:---------------------------
D:---------------------------
A:-------7----------5--------
E:---777----777-555----555---

Chorus 1:

G:------------------------------------   ----------------------------------------------------
D:------------------------------------   ----------------------------------------------------
A:------------------------------------   --------------------------------7----------5--------
E:---3333-5555-77777777-7-5--3--5-3---x2 ---3333-555-7777777777777777777----777-555----555---x1

Chorus 2:

G:------------------------------------   --------------------------
D:------------------------------------   --------------------------
A:------------------------------------   --------------------------
E:---3333-5555-77777777-7-5--3--5-3---x2 ---77777777-7-5--3--5-3---x2

The order is:
.Verse x6
.Chorus 1 x1
.Verse x5
.Chorus 1 x1
.Verse x5
.Chorus 1 x1
.Verse x5
.Chorus 2 x1

-------------------------------------------------------------------------------------------------

02 Fix Me

Verse:

G:-------------------------
D:-------------------------
A:-----------------3-333---
E:---5555-7777-555---------

Chorus:

G:----------------------------------------
D:----------------------------------------
A:---5-55-7-77-5-3--2--3-5--3-2--3--5-3---
E:----------------------------------------

End:

G:-------
D:-------
A:-------
E:---5---

The order is:
.Verse x6
.Chorus x1
.Verse x4
.Chorus x1
.Verse x4
.Chorus x1
.End x1

-------------------------------------------------------------------------------------------------

03 I've Had It

Verse:

G:---------------------
D:---------------------
A:---77777----5--------
E:-----------------5---

Chorus:

G:-----------------------------------------
D:-----------------------------------------
A:-----------------------------------------
E:---33333333-55555555-66666666-77777777---

Outro:

G:------------------------------------------------------------------------------
D:------------------------------------------------------------------------------
A:-----------------------------55-66-77-88-99-10-10-11-11-12-12-13-13-14-14-----
E:---3333-5555-6666-7777-88-99----------------------------------------------5---

The order is:
.Verse x4
.Chorus x1
.Verse x4
.Chorus x1
.Verse x4
.Chorus x1
.Verse x4
.Outro x1

-------------------------------------------------------------------------------------------------

04 Wasted

Verse:

G:---------------
D:---------------
A:---------5-----
E:---55555---5---

Chorus:

G:-----------------------------------------
D:-----------------------------------------
A:-----------------------------------------
E:---8-88888888888888-6-666666-4444-3333---

End:

G:-------
D:-------
A:-------
E:---5---

The order is:
.Verse x8
.Chorus x1
.Verse x8
.Chorus x1
.Verse x8
.Chorus x1
.End x1





Tab by: mdc_ivan






            
            
Suggest correction
Creating personal tab
Creating personal tab
You can edit any tab online and save it as your Personal.

You can edit, replace or remove any tab part or add personal notes – all changes will be seen only by you.

Personal tabs can be accessed anytime from any device, even offline.
Learn more »
Give kudos to tab author, rate the tab!
1 2 3 4 5
comments
print report bad tab
guest
You may want to rate the tab now too:
select rating
Wanna post a correction for this tab? Suggest correction