Oops, an error
Loading. Please wait.

Nervous Breakdown Bass Tab

version 2
version 2

Whole song

Interactive

5,241 views 3 this week
no commentswrite comment
1 2 3 4 5
accurate
x 6
add to favorites
launch autoscroll
font size
0
reset
guitar tuner
Autoscroll
slow
fast
+/-
esc
set tempo
stop
Help us to improve Ultimate-Guitar.com Take our survey!
×
Author
Nervous Breakdown                      Black Flag


  Q=185
 4/4
  Gtr I
  E E E E +E  E E E   E E E E +E  E E E
|-------------------|-------------------|
|-------2-(2)-------|-------0-(0)-------|
|-2-2-2-------2-2-2-|-0-0-0-------0-0-0-|
|-------------------|-------------------|


  E E E E +E  E E E   E E E E +E  E E E
|-------------------|--------------------|
|-------2-(2)-------|-------0-(0)--------|
|-2-2-2-------2-2-2-|-0-0-0-------0-0-0--|
|-------------------|--------------------|


  E E E E +E  E E E   E E E E +E  E E E
|-------------------|-------------------|
|-------2-(2)-------|-------0-(0)-------|
|-2-2-2-------2-2-2-|-0-0-0-------0-0-0-|
|-------------------|-------------------|


  E E E E +E  E E E   E E E E +E  E E E
|-------------------|-------------------|
|-------2-(2)-------|-------0-(0)-------|
|-2-2-2-------2-2-2-|-0-0-0-------0-0-0-|
|-------------------|-------------------|


  E E E E +E  E E E   E E E E +E  E E E
|-------------------|-------------------|
|-------2-(2)-------|-------0-(0)-------|
|-2-2-2-------2-2-2-|-0-0-0-------0-0-0-|
|-------------------|-------------------|


  E E E E +E  E E E   E E E E +E  E E E
|-------------------|-------------------|
|-------2-(2)-------|-------0-(0)-------|
|-2-2-2-------2-2-2-|-0-0-0-------0-0-0-|
|-------------------|-------------------|


  E E E E E E E E   E E E E E E E E   E E +E  E +E  E Q    E E E E E E E E
|-----------------|-----------------|--------------------|-----------------|
|-----------------|-----------------|--------------------|-----------------|
|---------0-0-0-0-|-2-2-2-2-2-2-2-2-|-2-0-(0)-------0----|---------0-0-0-0-|
|-3-3-3-3---------|-----------------|---------3-(3)---3--|-3-3-3-3---------|


  E E E E E E E E   E E +E  E +E  E Q    E E E E E E E E   E E E E E E E E
|-----------------|--------------------|-----------------|-----------------|
|-----------------|--------------------|-----------------|-----------------|
|-2-2-2-2-2-2-2-2-|-2-0-(0)-------0----|---------0-0-0-0-|-2-2-2-2-2-2-2-2-|
|-----------------|---------3-(3)---3--|-3-3-3-3---------|-----------------|


  E E E E +E  E E E   E E E E +E  E E E
|-------------------|-------------------|
|-------0-(0)-------|-------2-(2)-------|
|-0-0-0-------0-0-0-|-2-2-2-------2-2-2-|
|-------------------|-------------------|


  E E E E +E  E E E   E E E E +E  E E E
|-------------------|-------------------|
|-------0-(0)-------|-------2-(2)-------|
|-0-0-0-------0-0-0-|-2-2-2-------2-2-2-|
|-------------------|-------------------|


  E E E E +E  E E E   E E E E +E  E E E
|-------------------|-------------------|
|-------0-(0)-------|-------2-(2)-------|
|-0-0-0-------0-0-0-|-2-2-2-------2-2-2-|
|-------------------|-------------------|


  E E E E +E  E E E   E E E E +E  E E E
|-------------------|-------------------|
|-------0-(0)-------|-------2-(2)-------|
|-0-0-0-------0-0-0-|-2-2-2-------2-2-2-|
|-------------------|-------------------|


  E E E E +E  E E E   E E E E +E  E E E
|-------------------|-------------------|
|-------0-(0)-------|-------2-(2)-------|
|-0-0-0-------0-0-0-|-2-2-2-------2-2-2-|
|-------------------|-------------------|


  E E E E +E  E E E   E E E E +E  E E E
|-------------------|-------------------|
|-------0-(0)-------|-------2-(2)-------|
|-0-0-0-------0-0-0-|-2-2-2-------2-2-2-|
|-------------------|-------------------|


  E E E E E E E E   E E E E E E E E   E E +E  E +E  E Q    E E E E E E E E
|-----------------|-----------------|--------------------|-----------------|
|-----------------|-----------------|--------------------|-----------------|
|---------0-0-0-0-|-2-2-2-2-2-2-2-2-|-2-0-(0)-------0----|---------0-0-0-0-|
|-3-3-3-3---------|-----------------|---------3-(3)---3--|-3-3-3-3---------|


  E E E E E E E E   E E +E  E +E  E Q    E E E E E E E E   E E E E E E E E
|-----------------|--------------------|-----------------|-----------------|
|-----------------|--------------------|-----------------|-----------------|
|-2-2-2-2-2-2-2-2-|-2-0-(0)-------0----|---------0-0-0-0-|-2-2-2-2-2-2-2-2-|
|-----------------|---------3-(3)---3--|-3-3-3-3---------|-----------------|


  E E +E  E +E  E Q    E E E E +E  E E E
|--------------------|-------------------|
|--------------------|-------------------|
|-2-0-(0)-------0----|-0-0-0-5-(5)-------|
|---------3-(3)---3--|-------------5-5-5-|


  E E E E +E  E E E   E E E E +E  E E E
|-------------------|-------------------|
|-------------------|-------------------|
|-------7-(7)-------|-------5-(5)-------|
|-7-7-7-------7-7-7-|-5-5-5-------5-5-5-|


  E E E E +E  E E E   E E E E +E  E E E
|-------------------|-------------------|
|-------------------|-------------------|
|-------7-(7)-------|-------5-(5)-------|
|-7-7-7-------7-7-7-|-5-5-5-------5-5-5-|


  E E E E +E  E E E   E E E E +E  E E E
|-------------------|-------------------|
|-------------------|-------------------|
|-------7-(7)-------|-------5-(5)-------|
|-7-7-7-------7-7-7-|-5-5-5-------5-5-5-|


  E E E E +E  E E E   E E E E +E  E E E
|-------------------|-------------------|
|-------------------|-------------------|
|-------7-(7)-------|-------5-(5)-------|
|-7-7-7-------7-7-7-|-5-5-5-------5-5-5-|


  E E E E +E  E E E   E E E E +E  E E E
|-------------------|-------------------|
|-------------------|-------------------|
|-------7-(7)-------|-------5-(5)-------|
|-7-7-7-------7-7-7-|-5-5-5-------5-5-5-|


  E E E E +E  E E E   E E E E E E E E   E E E E E E E E   E E +E  E +E  E Q
|-------------------|-----------------|-----------------|--------------------|
|-------------------|-----------------|-----------------|--------------------|
|-------7-(7)-------|---------0-0-0-0-|-2-2-2-2-2-2-2-2-|-2-0-(0)-------0----|
|-7-7-7-------7-7-7-|-3-3-3-3---------|-----------------|---------3-(3)---3--|


  E E E E E E E E   E E E E E E E E   E E +E  E +E  E Q    E E E E E E E E
|-----------------|-----------------|--------------------|-----------------|
|-----------------|-----------------|--------------------|-----------------|
|---------0-0-0-0-|-2-2-2-2-2-2-2-2-|-2-0-(0)-------0----|---------0-0-0-0-|
|-3-3-3-3---------|-----------------|---------3-(3)---3--|-3-3-3-3---------|


  E E E E E E E E   E E +E  E +E  E Q    E E E E +E  E E E   E E E E +E  E E E
|-----------------|--------------------|-------------------|-------------------|
|-----------------|--------------------|-------------------|-------------------|
|-2-2-2-2-2-2-2-2-|-2-0-(0)-------0----|-0-0-0-5-(5)-------|-------7-(7)-------|
|-----------------|---------3-(3)---3--|-------------5-5-5-|-7-7-7-------7-7-7-|


  E E E E +E  E E E   E E E E +E  E E E
|-------------------|-------------------|
|-------------------|-------------------|
|-------5-(5)-------|-------7-(7)-------|
|-5-5-5-------5-5-5-|-7-7-7-------7-7-7-|


  E E E E +E  E E E   E E E E +E  E E E
|-------------------|-------------------|
|-------------------|-------------------|
|-------5-(5)-------|-------7-(7)-------|
|-5-5-5-------5-5-5-|-7-7-7-------7-7-7-|


  E E E E +E  E E E   E E E E +E  E E E
|-------------------|-------------------|
|-------------------|-------------------|
|-------5-(5)-------|-------7-(7)-------|
|-5-5-5-------5-5-5-|-7-7-7-------7-7-7-|


  E E E E +E  E E E   E E E E +E  E E E
|-------------------|-------------------|
|-------------------|-------------------|
|-------5-(5)-------|-------7-(7)-------|
|-5-5-5-------5-5-5-|-7-7-7-------7-7-7-|


  E E E E +E  E E E   E E E E +E  E E E   E E E E E E E E   E E E E E E E E
|-------------------|-------------------|-----------------|-----------------|
|-------------------|-------------------|-----------------|-----------------|
|-------5-(5)-------|-------7-(7)-------|---------0-0-0-0-|-2-2-2-2-2-2-2-2-|
|-5-5-5-------5-5-5-|-7-7-7-------7-7-7-|-3-3-3-3---------|-----------------|


  E E +E  E +E  E Q    E E E E E E E E   E E E E E E E E   E E +E  E +E  E Q
|--------------------|-----------------|-----------------|--------------------|
|--------------------|-----------------|-----------------|--------------------|
|-2-0-(0)-------0----|---------0-0-0-0-|-2-2-2-2-2-2-2-2-|-2-0-(0)-------0----|
|---------3-(3)---3--|-3-3-3-3---------|-----------------|---------3-(3)---3--|


  E E E E E E E E   E E +E  E +E  E Q    E E E E E E E E   E E +E  E +E  E Q
|-----------------|--------------------|-----------------|--------------------|
|-----------------|--------------------|-----------------|--------------------|
|-2-2-2-2-2-2-2-2-|-2-0-(0)-------0----|-2-2-2-2-2-2-2-2-|-2-0-(0)-------0----|
|-----------------|---------3-(3)---3--|-----------------|---------3-(3)---3--|


  W          +Q   Q  H
|----------|--------------*|
|----------|--------------*|
|-2--------|-(2)----------*|
|----------|--------------*|


Suggest correction
comments
print report bad tab
guest
You may want to rate the tab now too:
select rating
Please do not post tabs as comments. Select "correction" instead!