Oops, an error
Loading. Please wait.

No More Bass Tab

version 1
version 1

Whole song

740 views 6 this week
no commentswrite comment
1 2 3 4 5
1 last vote to show rating
add to favorites
launch autoscroll
font size
0
reset
guitar tuner
Autoscroll
slow
fast
+/-
esc
set tempo
stop
Help us to improve Ultimate-Guitar.com Take our survey!
×
Author
Difficulty
novice
BLACK FLAG
NO MORE

intro   note play fast hit the 3 on the E with the drum beat
G|---------------------------|
D|---------------------------|
A|---------------------------|
E|-3----3----3---3---3--3--3-|


main
G|------------------|
D|------------------|
A|----------5---5---|
E|3333333333-555-555


chorus
G|-------------------------------|
D|-------------------------------|
A|--------7-7-7-7--------------7-|
E|7---7----7-7-7-7--7---7---7----|
Suggest correction
Give kudos to tab author, rate the tab!
1 2 3 4 5
comments
print report bad tab
guest
You may want to rate the tab now too:
select rating
Wanna post a correction for this tab? Suggest correction