Oops, an error
Loading. Please wait.

No Values Bass Tab

version 1
version 1

Whole song

Interactive

933 views 1 this week
no commentswrite comment
1 2 3 4 5
3 more votes to show rating
add to favorites
launch autoscroll
font size
0
reset
guitar tuner
Autoscroll
slow
fast
+/-
esc
set tempo
stop
Help us to improve Ultimate-Guitar.com Take our survey!
×
Author
Difficulty
novice
Black Flag - No Values
everything went black album from 1980


riff 1
G|-----------------------------------------------------------------------|
D|-----------------------------------------------------------------------|
A|-----------------3-5----------------------------------5-3--------------|
E|-5-5-5-5-3-3-3-3----5-5-5-5-5-5-5-5-5-5-3-3-3-3-3-3-3-----5-5-5-5-5-5--|

chorus
G|--------------------------------------------------------------------------|
D|--------------------------------------------------------------------------|
A|-5-5-5-5----------5-5-5-5-5---------3-3-3-3-3----------3-3-3-3-3----------|
E|--------5-5-5-5-5----------5-5-5-5-5---------3-3-3-3-3----------3-3-3-3-3-|

 outro
G|---------------------------------------------------------------------------|
D|---------------------------------------------------------------------------|
A|---------------3-5------------------5-3------------------3-5---------------|
E|555555-333333----555555555-33333333----5555555555-333333----55555555-33333-|

G|----------------------------------------------------------------------|
D|----------------------------------------------------------------------|
A|-5-3----------5-3-----------5-3---------------------------------------|
E|----5-55555555---5-555555555-----5------------------------------------|
Suggest correction
Give kudos to tab author, rate the tab!
1 2 3 4 5
comments
print report bad tab
guest
You may want to rate the tab now too:
select rating
Wanna post a correction for this tab? Suggest correction