Oops, an error
Loading. Please wait.

Nothing Left Inside tab

574 views 18 this week
no commentswrite comment
1 2 3 4 5
3 more votes to show rating
add to favorites
×
Save as Personal and add changes to this tab that will be seen only by you. Learn more ›
×
You can save this tab as Personal to edit and correct it or add notes. All changes will be seen only by you. Learn more »
launch autoscroll
font size
0
reset
how to read this tab
guitar tuner
edit
Autoscroll
slow
fast
+/-
esc
set tempo
stop
Author
Difficulty
About this tab version
This is the first tab of this song on UG, seems to be fairly accurate. Was this info helpful? Yes No
BLACK
||||      ||||
|||| |||| |||| ||||
|||| |||| |||| ||||
|||| |||| |||| ||||
     ||||      ||||
               FLAG

"Nothing Left Inside"
off of My War

[Intro]
E|--------------------------------------------------|
B|--------------------------------------------------|
G|--------------------------------------------------|
D|--------------------------------------------------|
A|--------------------------------------------------|
E|--0--0--1--0--0--0--1--0--0--0--1--0--0--0--1--0--|

[Pre-verse] (Alternate times cut out the F chord part)
   PM---------------------------------------|
E|---------------------------------------------------------------------------------------------|
B|---------------------------------------------------------------------------------------------|
G|---------------------------------------------------------------------------------------------|
D|---------------------------------------------------------------------------------------------|
A|--------------------------------------------------------15--15--15--15--15--15--15--15--15/0-|
E|--0--0--0--0-0-0-0-0--0--0-0-0--0--0-0-0--0--0-0-0-0-0-/13--13--13--13--13--13--13--13--13/0-| 
                   On the last F chord, hold for a beat and then slide slowly down the fretboard

[Verse]
   PM--|    PM--|           PM--|    PM--|
E|--------------------------------------------------|
B|--------------------------------------------------|
G|-----------------3b----------------------3b-------|
D|--------------------------------------------------|
A|--------3-----------------------3-----------------|
E|--0--0--1--0--0-----------0--0--1--0--0-----------|

    PM--|    PM--|                PM
E|-----------------------0--------------------------|
B|-----------------------0--------------------------|
G|-----------------3b-------5b----------------------|
D|-------------------------------------/10-9--------|
A|--------3-----------------------0----/8--7------/0|
E|--0--0--1--0--0---------------------------------/0|

[Chorus]
(Greg Ginn is doing some weird sliding but I didn't transcribe it)
E|--------------------------------------------------|
B|--------------------------------------------------|
G|--------------------------------------------------|
D|--7--7--7--7--7--7--7--7--5--5--5--5--5--5--5--5--|
A|--7--7--7--7--7--7--7--7--5--5--5--5--5--5--5--5--|
E|--5--5--5--5--5--5--5--5--3--3--3--3--3--3--3--3--|

E|--------------------------------------------------|
B|-----------1----1------------------1-------1------|
G|-----------3b---3b4b3--------------3b4-----3b4b3--|
D|--------------------------------------------------|
A|--------------------------------------------------|
E|--0-----0-----------------0-----0-----------------|

E|--------------------------------------------------|
B|--------------------------------------------------|
G|--------------------------------------------------|
D|--7--7--7--7--7--7--7--7--5--5--5--5--5--5--5--5--|
A|--7--7--7--7--7--7--7--7--5--5--5--5--5--5--5--5--|
E|--5--5--5--5--5--5--5--5--3--3--3--3--3--3--3--3--|

(The second time you replace the F# with a pick slide, last time end on the last F#)
E|--------------------------------------------------------------------------|
B|--------------------------------------------------------------------------|
G|--------------------------------------------------------------------------|
D|--4--4--4--4--4--4--4--4--4--4--4--4--4--4--4--4--4-----------------------|
A|--4--4--4--4--4--4--4--4--4--4--4--4--4--4--4--4--4-----------------------|
E|--2--2--2--2--2--2--2--2--2--2--2--2--2--2--2--2--2-----x-----x-----x-----|

This is the basic structure of the song
Intro x2
Pre-verse
Verse x3
Chorus
Intro x2
Pre-verse (alt)
Verse x3
Chorus
Intro x2 (solo over)
Pre-verse (alt, solo over)
Verse x3 (solo over) 
Chorus
Intro x2
Pre-verse
Verse x3
Chorus

************************************

| h  Hammer-on
| b  Bend
| /  Slide up
| PM Palm Mute

************************************

            
            
Suggest correction
Creating personal tab
Creating personal tab
You can edit any tab online and save it as your Personal.

You can edit, replace or remove any tab part or add personal notes – all changes will be seen only by you.

Personal tabs can be accessed anytime from any device, even offline.
Learn more »
Give kudos to tab author, rate the tab!
1 2 3 4 5
comments
print report bad tab
guest
You may want to rate the tab now too:
select rating
Wanna post a correction for this tab? Suggest correction