Oops, an error
Loading. Please wait.
We have an official Rise Above tab made by UG professional guitarists. Check out the tab »
×
2,276 views 1 this week
no commentswrite comment
1 2 3 4 5
x 4
add to favorites
×
Save as Personal and add changes to this tab that will be seen only by you. Learn more ›
×
You can save this tab as Personal to edit and correct it or add notes. All changes will be seen only by you. Learn more »
launch autoscroll
font size
0
reset
guitar tuner
backing track
0:00
0:00
edit
Autoscroll
slow
fast
+/-
esc
set tempo
stop
Author
Difficulty
the other version had some errors in it

title: rise above
artist: black flag
tuning: standard (eadg)


intro (comes in after 8 bars)
g|--------|--------|--------|--------|
d|--------|--------|--------|--------|
a|--------|--------|777-666-|555-444-|
e|3-3-5-55|3-3-5-55|--------|--------|

g|--------|--------|--------|--------|
d|--------|--------|--------|--------|
a|--------|----3333|--------|--------|
e|3-3-5-55|0-------|1-111111|11111111|


d|--------|--------|--------|--------|
g|--------|--------|---rest-|---rest-|
a|--------|--------|--------|--------|
e|3-333333|33333333|--------|--------|

verse
                                      x4
g|---------|--------|--------|---------|
d|*--4---4-|--4---4-|--------|--------*|
a|*5---5---|5---5---|--------|--------*|
e|---------|--------|3-3-5-55|3-3-5-55-|

chorus
g|--------|--------|--------|--------|
d|--------|--------|--------|--------|
a|7-------|3-------|--------|--------|
e|--------|--------|3-------|3-3-5-55|

g|--------|--------|--------|--------|--------|
d|--------|--------|--------|--------|--------|
a|7-------|5-------|--------|--------|--------|
e|--------|--------|7-------|3-3-5-55|3-3-5-55|

verse again

chorus again

bridge (guitar solo)
g|---------|--------|--------|---------|
d|*--------|--------|--------|--------*|
a|*55555555|55555555|--------|--------*|
e|---------|--------|3-3-5-55|3-3-5-55-|

chorus again

vese again

chorus again

outro
                    x3
g|---------|---------|
d|*--------|--------*|
a|*--------|--------*|
e|-3-3-5-55|3-3-5-55-|




questions, comments? email me @ zstorman2yahoo.com





            
            
Suggest correction
Creating personal tab
Creating personal tab
You can edit any tab online and save it as your Personal.

You can edit, replace or remove any tab part or add personal notes – all changes will be seen only by you.

Personal tabs can be accessed anytime from any device, even offline.
Learn more »
comments
print report bad tab
guest
You may want to rate the tab now too:
select rating
Wanna post a correction for this tab? Suggest correction