Oops, an error
Loading. Please wait.

Six Pack bass

version 2
version 2

Whole song

Interactive

19,689 views 30 this week
2 commentsread comments
1 2 3 4 5
x 5
add to favorites
×
Save as Personal and add changes to this tab that will be seen only by you. Learn more ›
×
You can save this tab as Personal to edit and correct it or add notes. All changes will be seen only by you. Learn more »
launch autoscroll
font size
0
reset
guitar tuner
edit
Autoscroll
slow
fast
+/-
esc
set tempo
stop
Author
Difficulty
Unregistered
intermediate
[Intro]
G|------------------------------------|
D|------------------------44-----44\--|
A|-------------------55555--55555-----|
E|-33333333/66666666------------------|

[Verse] (x4)
G|---------------------------------|
D|---------------------------------|
A|--------------7------------------|
E|-77777777-4-2---7777777755555555-|

[Chorus 1]
G|--------------------------------|
D|----------------------44-----44-|
A|-----------------55555--55555---|
E|-3--3-33/6--6-66----------------|

G|-------------------------------------------------------------------------|
D|-------------------------------------------------------------9h11-9------|
A|---------------------------99----------99----------9999999999-------11-9-|
E|-3--3-33/6--6-66-1010101010--1010101010--1010101010----------------------|

[Verse] (x4)
G|---------------------------------|
D|---------------------------------|
A|--------------7------------------|
E|-77777777-4-2---7777777755555555-|

[Chorus 2]
G|--------------------------------|
D|----------------------44-----44-|
A|-----------------55555--55555---|
E|-3--3-33/6--6-66----------------|

G|-------------------------------------------------------------9h11-9------|
D|--------------------------------------------------------------------11-9-|
A|---------------------------99----------99----------9999999999------------|
E|-3--3-33/6--6-66-1010101010--1010101010--1010101010----------------------|

[Verse] (x4)
G|---------------------------------|
D|---------------------------------|
A|--------------7------------------|
E|-77777777-4-2---7777777755555555-|

[Outro]
G|-------------------------------------------------------------------------|
D|-------------------------------------------------------------------------|
A|-7-------------7-------------7-------------7-----------------------------|
E|--7777775555555-7777775555555-7777775555555-777777-5~------------------5-|



************************************

| \  Slide down
| /  Slide up
| h  Hammer-on
| ~  Vibrato

************************************

            
            
Suggest correction
Creating personal tab
Creating personal tab
You can edit any tab online and save it as your Personal.

You can edit, replace or remove any tab part or add personal notes – all changes will be seen only by you.

Personal tabs can be accessed anytime from any device, even offline.
Learn more »
comments
print report bad tab
2 comments total.
0 reply
haydeN64 302 Dec 01, 2011 02:44 AM

pretty good tab, not sure which version this might be, but from all i've heard i think the freestyle bit in the end of the chorus goes for more of a fast bluesy scale walk rather than the 1010-9 layout and penatonic hammering. the rest of it is really helpful to me though. thanks

0 reply
May21980 66 Mar 09, 2017 05:01 PM

amazing bass riff...

guest
Wanna post a correction for this tab? Suggest correction