Oops, an error
Loading. Please wait.

Six Pack bass

version 3
version 3

Whole song

Interactive

403 views 3 this week
1 commentread comment
1 2 3 4 5
1 last vote to show rating
add to favorites
×
Save as Personal and add changes to this tab that will be seen only by you. Learn more ›
×
You can save this tab as Personal to edit and correct it or add notes. All changes will be seen only by you. Learn more »
launch autoscroll
font size
0
reset
guitar tuner
edit
Autoscroll
slow
fast
+/-
esc
set tempo
stop
Author
Difficulty
Song: Six Pack
Artist: Black Flag
Album: Damaged (but it goes for all the song's versions)
Genre: Hardcore Punk
Year: 1981

Hey guys! This is the bass tab of the song. There already are bass tabs of "Six Pack" on UG, but
they are ALL wrong... this is the ONLY really correct, and (like I said) it goes for the 
versions of the song.
Anyway, enjou the Black Flag!

Intro:

G:-------------------------------------------
D:---------------------------444-------444---
A:---------------------55555-----55555-------
E:---33333333-66666666-----------------------

Verse:

G:---------------------------------------
D:---------------------------------------
A:-----------------7---------------------
E:---77777777-4--2---77777777-55555555---

Chorus 1:

G:--------------------------------
D:------------------5-7-7-5-------
A:--------------5-7---------7-5---
E:---3-33-6-66--------------------x1

G:-----------------------------------------------------
D:------------------5-7-7-5----------7-9-12-10---------
A:--------------5-7---------7-5--7-9-----------12-10---
E:---3-33-6-66-----------------------------------------x1

Chorus 2:

G:----------------------6-4-------
D:------------------4-6-----6-4---
A:--------------4-6---------------
E:---3-33-6-66--------------------x1

G:---------------------------------------14-12---------
D:------------------5-7-7-5----------7-9-------14-12---
A:--------------5-7---------7-5--7-9-------------------
E:---3-33-6-66-----------------------------------------x1

End:

G:----------------------------------------------------
D:----------------------------------------------------
A:----------------------------------------------------
E:---77777777-55555555-77777777-55555555-77777777-5---

The order is:
.Intro x10
.Verse x4
.Chorus 1 x1
.Verse x4
.Chorus 2 x1
.Verse x4
.End x1




Tab by: mdc_ivan





            
            
Suggest correction
Creating personal tab
Creating personal tab
You can edit any tab online and save it as your Personal.

You can edit, replace or remove any tab part or add personal notes – all changes will be seen only by you.

Personal tabs can be accessed anytime from any device, even offline.
Learn more »
Give kudos to tab author, rate the tab!
1 2 3 4 5
comments
print report bad tab
1 comment total.
+1 reply
Skankman82 461 Sep 10, 2015 12:39 AM

Perfect. The most complete on UG.

guest
You may want to rate the tab now too:
select rating
Wanna post a correction for this tab? Suggest correction