Oops, an error
Loading. Please wait.

Hurricane Jane intro tab

6,232 views 1 this week
4 commentsread comments
1 2 3 4 5
1 last vote to show rating
add to favorites
×
Save as Personal and add changes to this tab that will be seen only by you. Learn more ›
×
You can save this tab as Personal to edit and correct it or add notes. All changes will be seen only by you. Learn more »
launch autoscroll
font size
0
reset
how to read this tab
guitar tuner
edit
Autoscroll
slow
fast
+/-
esc
set tempo
stop
-------------------------------------------------------------------------------
                             Hurricane jane - Black kids
-------------------------------------------------------------------------------
Tabbed by: againsttheworld
Email: sidfromskins@hotmail.co.uk

I knocked this up quickly after i saw black kids live. It is an amazing song and i am 
certain that this is exactly right for the intro.
E-mail me with any corrections or suggestions please.

Tuning: standard

PM . . . . . . . . . . . . . . . . . . . . . . . . . . . . . . . . .
e|---------------------------------------------------------------------------|
B|---------------------------------------------------------------------------|
G|---------------------------------------------------------------------------|
D|---------3--5--7--7--5--3-------------------3--5--7--7--5--3---------------|
A|---5-5-5------------------5-----------5-5-5------------------5-------------|
E|---------------------------------------------------------------------------|

PM . . . . . . . . . . . . . . . . . . . . . . . . . . . . . . . . .
e|-----------------------------------------------------------------------------|
B|-----------------------------------------------------------------------------|
G|---------------------------------------------------------5----5--------------|
D|---------3--5--7--7--5--3--------------------3--5--7--7-----7----------------|
A|---5-5-5------------------5------------5-5-5---------------------------------|
E|-----------------------------------------------------------------------------|


| .  palm muted
| /  slide up
| \  slide down
| h  hammer-on
| p  pull-off
| ~  vibrato
| +  harmonic
| x  Mute note
===============================================================================

            
            
Suggest correction
Creating personal tab
Creating personal tab
You can edit any tab online and save it as your Personal.

You can edit, replace or remove any tab part or add personal notes – all changes will be seen only by you.

Personal tabs can be accessed anytime from any device, even offline.
Learn more »
Give kudos to tab author, rate the tab!
1 2 3 4 5
comments
print report bad tab
4 comments total. Showing first comments.
0 reply
Neighborhood3 82 Jul 29, 2008 11:41 PM

the tab would be exactly right if the strings were tuned down half a fret. great job otherwise

0 reply
samqwe 144 Jun 07, 2009 06:06 AM

I think this is right

PM . . . . . . . . . . . . . . . . . . . . . . . . . . . . .
e|---------------------------------------------------------------|
B|---------------------------------------------------------------|
G|---------------------------------------------------------------|
D|-------------5-7--7--5--------------------5-7--7--5------------|
A|---4-4-4--7-------------7--4----4-4-4--7-------------7--4------|
E|---------------------------------------------------------------|

PM . . . . . . . . . . . . . . . . . . . . . . . .
e|---------------------------------------------------------------|
B|---------------------------------------------------------------|
G|--------------------------------------------------4-----4------|
D|-------------5-7--7--5--------------------5-7--7-----7---------|
A|---4-4-4--7-------------7--4----4-4-4--7-----------------------|
E|---------------------------------------------------------------|

0 reply
samqwe 144 Jun 07, 2009 06:27 AM

sorry above is dumb, the tab is right except for the tuning (as mentioned before)

guest
You may want to rate the tab now too:
select rating
Wanna post a correction for this tab? Suggest correction