Oops, an error
Loading. Please wait.

Im Not Gonna Teach Your Boyfriend How To Dance Tab

25,107 views 6 this week
1 commentread comment
1 2 3 4 5
accurate
x 7
add to favorites
launch autoscroll
font size
0
reset
how to read this tab
guitar tuner
Tab Pro tools
  • play this tab
  • loop segment
  • change instrument
  • show fretboard
  • metronome
Autoscroll
slow
fast
+/-
esc
set tempo
stop
Contributor
Difficulty
novice
-------------------------------------------------------------------------------
         I'm not gonna teach your boyfriend to dance - Black Kids
-------------------------------------------------------------------------------
Quite an easy tab, it just has small changes through all the song plus the "solo" if it 
be called a solo, well...there it is
Tabbed by:estef
Email:shadow759@hotmail.com

Tuning:standard tuning

e|1-xx1-x-1-1-11-xx|3-xx1-x-1-1-11-xx|--xx--x--------xx|1-xx1-x-1-1-11-xx|
B|1-xx1-x-1-1-11-xx|3-xx1-x-1-1-11-xx|1-xx1-x-1-1-11-xx|1-xx1-x-1-1-11-xx|
G|2-xx2-x-2-2-22-xx|4-xx2-x-2-2-22-xx|0-xx0-x-0-0-00-xx|2-xx2-x-2-2-22-xx|
D|3-xx3-x-3-3-33-xx|5-xx3-x-3-3-33-xx|2-xx2-x-2-2-22-xx|3-xx3-x-3-3-33-xx|
A|3-xx3-x-3-3-33-xx|5-xx3-x-3-3-33-xx|3-xx3-x-3-3-33-xx|3-xx3-x-3-3-33-xx|
E|1-xx1-x-1-1-11-xx|3-xx1-x-1-1-11-xx|--xx--x--------xx|1-xx1-x-1-1-11-xx|play this for 10x

1:17
e|1------------111-|-----------------|-----------------|-----------------|
B|1------------111-|-----------------|-----------------|-----------------|
G|2------------222-|-----------------|-----------------|-----------------|
D|3------------333-|-----------------|-----------------|-----------------|
A|3------------333-|-----------------|-----------------|-----------------|
E|1------------111-|-----------------|-----------------|-----------------|

1:36
e|1-xx1-x-1-1-11-xx|3-xx1-x-1-1-11-xx|--xx--x--------xx|1-xx1-x-1-1-11-xx|
B|1-xx1-x-1-1-11-xx|3-xx1-x-1-1-11-xx|1-xx1-x-1-1-11-xx|1-xx1-x-1-1-11-xx|
G|2-xx2-x-2-2-22-xx|4-xx2-x-2-2-22-xx|0-xx0-x-0-0-00-xx|2-xx2-x-2-2-22-xx|
D|3-xx3-x-3-3-33-xx|5-xx3-x-3-3-33-xx|2-xx2-x-2-2-22-xx|3-xx3-x-3-3-33-xx|
A|3-xx3-x-3-3-33-xx|5-xx3-x-3-3-33-xx|3-xx3-x-3-3-33-xx|3-xx3-x-3-3-33-xx|
E|1-xx1-x-1-1-11-xx|3-xx1-x-1-1-11-xx|--xx--x--------xx|1-xx1-x-1-1-11-xx|like 5x

2:15
e|-----------------|-----------------|-----------------|-----------------|
B|-----------------|-----------------|-----------------|-----------------|
G|22-2-2--------2--|-----------------|2-2-------2^-----|-----------------|
D|-------5-3-5-----|-----------------|----5-3-5-----5~-|--3---2------2---|
A|-----------------|3----3----2----3-|-----------------|----------5----5-|
E|-----------------|-----------------|-----------------|-----------------|2x

e|1----------------|3----------------|-----------------|11111111111111111|
B|1----------------|3----------------|1----------------|11111111111111111|
G|2----------------|4----------------|0----------------|22222222222222222|
D|3----------------|5----------------|2----------------|33333333333333333|
A|3----------------|5----------------|3----------------|33333333333333333|
E|1----------------|3----------------|-----------------|11111111111111111|

2:39
and then the same till the end
e|1-xx1-x-1-1-11-xx|3-xx1-x-1-1-11-xx|--xx--x--------xx|1-xx1-x-1-1-11-xx|
B|1-xx1-x-1-1-11-xx|3-xx1-x-1-1-11-xx|1-xx1-x-1-1-11-xx|1-xx1-x-1-1-11-xx|
G|2-xx2-x-2-2-22-xx|4-xx2-x-2-2-22-xx|0-xx0-x-0-0-00-xx|2-xx2-x-2-2-22-xx|
D|3-xx3-x-3-3-33-xx|5-xx3-x-3-3-33-xx|2-xx2-x-2-2-22-xx|3-xx3-x-3-3-33-xx|
A|3-xx3-x-3-3-33-xx|5-xx3-x-3-3-33-xx|3-xx3-x-3-3-33-xx|3-xx3-x-3-3-33-xx|
E|1-xx1-x-1-1-11-xx|3-xx1-x-1-1-11-xx|--xx--x--------xx|1-xx1-x-1-1-11-xx|
comments
print report bad tab
1 comment total.
0 reply
psycho826 wrote on May 13 2011, 09:28 pm

hey try this for the synthesizer part
you can figure out how many times to play each note


e--3------3----------15--------15--------------
B----5------6-5-6-------17---------17-18-17----
G------5-------------------17------------------
D----------------------------------------------
A----------------------------------------------
E----------------------------------------------

I want to post or [tab]
guest
You may want to rate the tab now too:
select rating
Please do not post tabs as comments. Select "correction" instead!