Oops, an error
Loading. Please wait.

Been A Long Time tab

version 4
version 4

Whole song

Interactive

1,451 views 3 this week
no commentswrite comment
1 2 3 4 5
3 more votes to show rating
add to favorites
×
Save as Personal and add changes to this tab that will be seen only by you. Learn more ›
×
You can save this tab as Personal to edit and correct it or add notes. All changes will be seen only by you. Learn more »
launch autoscroll
font size
0
reset
how to read this tab
guitar tuner
edit
Autoscroll
slow
fast
+/-
esc
set tempo
stop
Author
Difficulty
 Most of this tab credit is goin to my friend who will remain anyonomous.
 Thanks.

The timing is kinda hard to explain listen to the song and im sure you will get it.

 v = Vibrato
 ~ = Let ring
 Lead Guitar        *** VERSE RIFF***                     2nd Ending
 E|-------------------------------------------------------|---------|
 B|-------------------------------------------------------|---------|
 G|-------------------------------------------------------|---------|
 D|0-0----------------------------------0-0---------------|---------|
 A|0-0----------------------------------0-0---------------|---------|
 D|0-0----------------------------------0-0------0-6v-0-6v|0-6v-0-5v|
     " The Death, the Lies, in Lies the Truth"

 Rythm Guitar                                             2nd Ending
 E|-------------------------------------------------------|---------|
 B|-------------------------------------------------------|---------|
 G|-------------------------------------------------------|---------|
 D|0-0----------------------------------0-0------0-6~-0-6~|0-6~-0-5~|
 A|0-0----------------------------------0-0------0-6~-0-6~|0-6~-0-5~|
 D|0-0----------------------------------0-0------0-6~-0-6~|0-6~-0-5~|
     " The Death, the Lies, in Lies the Truth"
               ^             ^
               ^             ^
 *= THIS CONTINUES THROUGHT VERSES 1 AND 2!!!


 Lead Guitar      ***CHORUS RIFF***
 E|----------------------------------------------------|
 B|----------------------------------------------------|
 G|----------------------------------------------------|
 D|----------------0-0-0-0-0---------------------------|
 A|----------------0-0-0-0-0---------------------------|
 D|6v~--5v~-3v-0~--0-0-0-0-0---------------------------|
                  PM--------]**Use Alternate Picking---|

"Oh Lord its been a long time.....

 Rythm Guitar
 E|----------------------------------------------------|
 B|----------------------------------------------------|
 G|----------------------------------------------------|
 D|6~~--5~--0--0~--0-0-0-0-0---------------------------|
 A|6~~--5~--0--0~--0-0-0-0-0---------------------------|
 D|6~~--5~~-3v-0~--0-0-0-0-0---------------------------|
                  PM--------]**Use Alternate Picking---|


Note**= The Rythm part for solo is same as chorus.

For the opener after the solo try something like this (MAY NOT BE RIGHT).


BOTH GUITARS
 E|--------------------------------|
 B|--------------------------------|
 G|--------------------------------|
 D|666-555-333-000-666-555-333-000-|
 A|666-555-333-000-666-555-333-000-|
 D|666-555-333-000-666-555-333-000-|

Theres the song have fun any comments or questions email me at verse5_subliminal@hotmail.com

Thanks And Rock ON!
Tabbed by Garrett

Order**

Verse Riff 4x
Chorus 4x
Verse Riff 4x
Chours 4x
Solo Rythm Riff 8x
Opener 2x
Suggest correction
Creating personal tab
Creating personal tab
You can edit any tab online and save it as your Personal.

You can edit, replace or remove any tab part or add personal notes – all changes will be seen only by you.

Personal tabs can be accessed anytime from any device, even offline.
Learn more »
Give kudos to tab author, rate the tab!
1 2 3 4 5
comments
print report bad tab
guest
You may want to rate the tab now too:
select rating
Wanna post a correction for this tab? Suggest correction