Oops, an error
Loading. Please wait.

Bleed For Me chords

version 1
version 1

Whole song

Interactive

369 views 3 this week
no commentswrite comment
1 2 3 4 5
3 more votes to show rating
add to favorites
×
Save as Personal and add changes to this tab that will be seen only by you. Learn more ›
×
You can save this tab as Personal to edit and correct it or add notes. All changes will be seen only by you. Learn more »
launch autoscroll
font size
0
reset
transpose
0
reset
simplify chords
display chords
guitar tuner
backing track
0:00
0:00
edit
Autoscroll
slow
fast
+/-
esc
set tempo
stop
Strumming
There is no strumming pattern for this song yet. and get +5 IQ
Capo 3

Verse riff :

Between line riff #1 :

1:-----------------------------------------------|
2:-1--1--1--1--1--1--1--1--1--1--1--1--1--1--1--1|
3:-2--0--0--0--0--0--2--0--0--0--0--0--2--0--0--0|
4:-2--0--0--2--0--0--2--0--0--2--0--0--2--0--2--0|
5:-0--0--0--3--0--0--0--0--0--3--0--0--0--0--3--0|
6:-----------------------------------------------|

Line riff :

1:------------------------------------------|
2:-1--1--1--1--1--1--1--1--1--1--1--1--3---3|
3:-2--0--0--0--0--0--2--0--0--0--0--0--3---3|
4:-2--0--0--2--0--0--2--0--0--2--0--0--3---3|
5:-0--0--0--3--0--0--0--0--0--3--0--0--1---1|
6:------------------------------------------|



//Verse\\

Am         C  Am    C A#
This grave of life, I give to you     | \
Am     C    Am    C  A#               |  \
Ignore what was, you know it's true   |   \ Play the line then play the riff #1
Am     C  Am    C    A#               |   / between each line, you can play
Realms of fear, they speak the truth  |  /  something else as well.
Am   C   Am    C A#                   | /
What has past, I hand to you          |/



Chorus riff :

1:-0----2----0----0--0--0--3--1----|
2:-1----3----1----1--1--1--3--2----|
3:-2----2----0----0--0--0--0--2----|
4:-2----0----2----2--2--2--0--2----|
5:-0---------3----2--3--2--2--0----|
6:-------------------------3-------|

1:-0----2----0----|\
2:-1----3----1----| \
3:-2----2----0----|  \ Play these chords in strumming while singing the '' you ''
4:-2----0----2----|  / that you extend between each line.
5:-0---------3----| /
6:----------------|/



//Chorus\\

Am    D   C  C/B C C/B  G   Am
Bleed for me, I've bled for you
Am      D   C      C/B  C C/B   G  Am
Embrace me, child, I'll see you through
Am    D   C  C/B C C/B  G   Am
Bleed for me, I've bled for you
Am      D   C      C/B  C C/B   G  Am
Embrace me, child, I'll see you through
C
I'll see you



//Verse\\

Am       C  Am    C  A#
I'll dig a hole, and bow my head
Am     C   Am     C   A#
To see you smile, I'd face my death
Am     C  Am    C     A#
Realms of fear, they speak the truth
Am   C   Am    C A#
What has past, I hand to you



//Chorus\\

Am    D   C  C/B C C/B  G   Am
Bleed for me, I've bled for you
Am      D   C      C/B  C C/B   G  Am
Embrace me, child, I'll see you through
Am    D   C  C/B C C/B  G   Am
Bleed for me, I've bled for you
Am      D   C      C/B  C C/B   G  Am
Embrace me, child, I'll see you through
C
I'll see you


//Chorus\\

Am    D   C  C/B C C/B  G   Am
Bleed for me, I've bled for you
Am      D   C      C/B  C C/B   G  Am
Embrace me, child, I'll see you through
Am    D   C  C/B C C/B  G   Am
Bleed for me, I've bled for you
Am      D   C      C/B  C C/B   G  Am
Embrace me, child, I'll see you through
C
I'll see you

            
            
Suggest correction
Creating personal tab
Creating personal tab
You can edit any tab online and save it as your Personal.

You can edit, replace or remove any tab part or add personal notes – all changes will be seen only by you.

Personal tabs can be accessed anytime from any device, even offline.
Learn more »
Give kudos to tab author, rate the tab!
1 2 3 4 5
comments
print report bad tab
guest
You may want to rate the tab now too:
select rating
Wanna post a correction for this tab? Suggest correction