Oops, an error
Loading. Please wait.

Blood Is Thicker Than Water tab

version 2
version 2

Whole song

Interactive

13,472 views 18 this week
3 commentsread comments
1 2 3 4 5
x 11
add to favorites
×
Save as Personal and add changes to this tab that will be seen only by you. Learn more ›
×
You can save this tab as Personal to edit and correct it or add notes. All changes will be seen only by you. Learn more »
launch autoscroll
font size
0
reset
how to read this tab
guitar tuner
edit
Autoscroll
slow
fast
+/-
esc
set tempo
stop
Author
Difficulty
intermediate
This is such a fun song to play...I looked at some of the other tabs for the song and 
I would try a post......Here is my version of the song....Let me know what you think....

Standard Tuning E A D G B E

Blood Is Thicker Than Water- Black Label Society

^^^-vibrato
\ /- legato slide
^ v- bending
...-tremolo picking

Intro:

Gtr. 1

E|---------------------------------------------------------------------|
B|---------------------------------------------------------------------|
G|-9^^^------9/11/12^^^---12/14^^^--------14\11\9^^^-------------------|
D|---------------------------------------------------------------------|
A|---------------------------------------------------------------------| x2
E|---------------------------------------------------------------------|

Gtr. 2
   Em           A7                 Cmaj7         Em

E|-0----0-------0--------0---------0----0--------0-----------0---------|
B|-0--3---3-----2--2-------2-------0--0---0------0-------------3-------|
G|-0--------0---0----0-------0-----0--------0----0----0----------0-----|
D|-2------------2------2-------2---2-------------2------2----------2---|
A|-2------------0------------------3-------------2--------2------------| x2
E|-0---------------------------------------------0---------------------|

Gtr. 3
   Em           A7                 Cmaj7         Em

E|-0------------0------------------0-------------0---------------------|
B|-0------------2------------------0-------------0---------------------|
G|-0------------0------------------0-------------0---------------------|
D|-2------------2------------------2-------------2---------------------|
A|-2------------0------------------3-------------2---------------------|
E|-0---------------------------------------------0---------------------| x2

Sweep all 6 strings on the first chord...Listen to the song....

The verse part is Guitar 2 and 3 as shown above...


Chorus:"I walk this mile....."

Gtr. 1

E|----------------------------------------------------------------------|
B|----------------------------------------------------------------------|
G|---5^^^-----5/7^^^--------7/9^^^------------------9\2^^^--------------|
D|----------------------------------------------------------------------|
A|----------------------------------------------------------------------|
E|----------------------------------------------------------------------|


Gtr. 2
   Cmaj7          Dadd9                 Em            A7


E|-0-----0--------0----------0----------0-----0-------0----------0------|
B|-0---0---0------3---3--------3--------0-------3-----2----2-------2----|
G|-0---------0----0-----0--------0------0---0-----0---0------0-------0--|
D|-2--------------4-------4--------4----2-------------2--------2-------2|
A|-3--------------5---------------------2-------------0-----------------|
E|--------------------------------------0-------------------------------|


Gtr. 3
   Cmaj7          Dadd9                 Em             A7


E|-0--------------0---------------------0--------------0----------------|
B|-0--------------3---------------------0--------------2----------------|
G|-0--------------0---------------------0--------------0----------------|
D|-2--------------4---------------------2--------------2----------------|
A|-3--------------5---------------------2--------------0----------------|
E|--------------------------------------0-------------------------------|


"end........Blood is thicker than water...."

Gtr. 1

E|----------------------------------------------------------------------|
B|----------------------------------------------------------------------|
G|---2/5^^^----------5/7^^^------7\4^^^---------------------------------|
D|----------------------------------------------------------------------|
A|----------------------------------------------------------------------|
E|----------------------------------------------------------------------|

Gtrs 2 and 3
    Cmaj7          Dadd9              B              Em


E|-0---------------0-------------------------------------0--------------|
B|-0---------------3-------------------------------------0--------------|
G|-0---------------0------------------4------------------0--------------|
D|-2---------------4------------------4------------------2--------------|
A|-3---------------5------------------2------------------2--------------|
E|-------------------------------------------------------0--------------|

The solo is a pain.....But hopefully this helps out anyone who wants to learn the song....

sorry but the solo is in tunning D
solo

D|-10-12--10-12---------------------------------------------------------|
G|--------------10-12--10-12--------------------------------------------|
C|----------------------------------------------------------------------|
F|----------------------------------------------------------------------|
A|----------------------------15^17-----------------------------15^17---|
D|----------------------------------14^15v14--15^17--14^15v14-12--------|


D|-17/0-10-12--10-12--------------------------------------------------------|
G|-------------------10-12--10-12-------------------------------------------|
C|--------------------------------------------------------------------------|
F|--------------------------------------------------------------------------|
A|--------------------------------15^17----------------15^17v-12--15^17-----|
D|--------------------------------------14^15v14--15^17---------------------|


D|------------------------------------------------------------------------------------------------|
G|------------------------------------------------------------------------------------------------|
C|------------------------------------------------------------------------------------------------|
F|------------------------------------------------------------------------------------------------|
A|------------------------------------------------------------------------------------------------|
D|--1......19/0----15-17-19-15-17-19--14-15-17-14-15-17--12-14-15-12-14-15--10-12-14-10-12-14-----|


D|------------------------------------------------------------------------------------------------|
G|------------------------------------------------------------------------------------------------|
C|--------------------------------------------------------------14--14----------------------------|
F|------------------------------------14^16---------15--15-14-12--14--12-13-14^16-----------------|
A|---------15--15-----15-15^17---15-12-----12--15-12--12------------------------------------------|
D|-12-15-12--15--12-14---------12------------12---------------------------------------------------|



D|------------------------------------------------------------------------------------------------|
G|------------------------------------------------------------------------------------------------|
C|------------------------------------------------------------------------------------------------|
F|----------15--14^16v14^16v14--12----------------------------------------------------------------|
A|-12--15-12--12-------------------------------17--------------17--------------17--------------17-|
D|---12---------------------------18-17-18-17-15--18-17-18-17-15--18-17-18-17-15--18-17-18-17-15--|


D|---------------------------------------------------------|
G|---------------------------------------------------------|
C|---------------------------------------------------------|
F|-----------------------------------15--------------------|
A|--------------------15--14-15-12-14--12------------------|
D|-17^19---14-15-12-14--12---------------------------------|


D|---------------------------------------------------------|
G|-12-14--------14-----------------------------------------|
C|------12-14-12--12-14--------14--------------------------|
F|---------------------12-14-12--12-14--------14-----------|
A|------------------------------------12-15-12--12-15^17---|
D|---------------------------------------------------------|












            
            
Suggest correction
Creating personal tab
Creating personal tab
You can edit any tab online and save it as your Personal.

You can edit, replace or remove any tab part or add personal notes – all changes will be seen only by you.

Personal tabs can be accessed anytime from any device, even offline.
Learn more »
comments
print report bad tab
3 comments total.
0 reply
jorgejorge 10 May 22, 2008 11:33 AM

This seems to be on the money...Best version of the song so far..

0 reply
MangeuDePoutine 1,289 May 23, 2008 07:41 PM

yeah nice version 5*

0 reply
rockerjesus 10 Jul 20, 2008 07:18 PM

sweet tab sweet song wierd film clip 5* from me
long live the bearded one

guest
You may want to rate the tab now too:
select rating
Wanna post a correction for this tab? Suggest correction