Oops, an error
Loading. Please wait.

Crazy Or High bass

version 1
version 1

Whole song

Interactive

955 views 1 this week
no commentswrite comment
1 2 3 4 5
1 last vote to show rating
add to favorites
×
Save as Personal and add changes to this tab that will be seen only by you. Learn more ›
×
You can save this tab as Personal to edit and correct it or add notes. All changes will be seen only by you. Learn more »
launch autoscroll
font size
0
reset
guitar tuner
edit
Autoscroll
slow
fast
+/-
esc
set tempo
stop
Difficulty
Artist: Black Label Society
Song: Crazy or high {track 1}
Album: Hangover Music Vol. 6
Tuning 1/2 step down {D#,G#,C#,F#,A#,D#}
Tabbed By: Brandon

      Key: /=slide
           H=Hammer-on
           P=Pull-off
           T=Tap


Intro: Acoustic guitar

Verse:

G--------------------------------------------------------------|              Note: When you hit the 5,
D--------------------------------------------------------------|              don't slide down right as
A-0-----------------5/-----------------------------------------|              you hit the note, let it ring
E--------------------------------------------------------------|              first and then gradually slide
                                              back down to the 0. Listen to
                                              the song to make sure you have
                                              the timing and everything good


Chorus:

G------------------------------------------------------------------------|
D------------------------------------------------------------------------|
A--------------------5-5-5-5-5-5-5-5---------------------5-5-5-5-3-3-3-3-|
E--5-5-3-5---3-5-3---------------------5-5-3-5----3-5-3------------------|

G-----------------------------------------------------------------|
D-----------------------------------------------------------------|
A--------------------5-5-5-5-5-5-5-5---------------------5---3----|
E--5-5-3-5---3-5-3---------------------5-5-3-5----3-5-3-----------|


Bridge:

G------------------------------------------|
D------------------------------------------|
A-2-----------2----------------------------|
E---0-0-5-0-0---0-0-5-0-0-1-1--------------|

Solo:

G----------------------------------------------------|
D----------------------------------------------------|  Repeat
A----------------------------------------------------|
E-0--0-0-0-0-0-0-0-0-0-0-0-0-0-0-0-0-0-0-1-1---------|


G-------------------------|   Note: Do this part as a fill after
D-------------------------|   solo bassline and then go right into
A--5-5-5-5--3-3-3---------|   final chorus.
E-----------------3-------|


Order:
       Intro
       Verse x6
       Chorus x2
       Verse x6
       Chorus x2
       Bridge x4
       Solo
       Chorus x4
                            Note: After final chorus just do the verse
                            bassline until it fades out. Hope this was
                            helpful :} Zakk Rules!! Bleed Black Label!!!

            
            
Suggest correction
Creating personal tab
Creating personal tab
You can edit any tab online and save it as your Personal.

You can edit, replace or remove any tab part or add personal notes – all changes will be seen only by you.

Personal tabs can be accessed anytime from any device, even offline.
Learn more »
Give kudos to tab author, rate the tab!
1 2 3 4 5
comments
print report bad tab
guest
Wanna post a correction for this tab? Suggest correction