Oops, an error
Loading. Please wait.

Destruction Overdrive bass

version 1
version 1

Whole song

Interactive

1,554 views 1 this week
1 commentread comment
1 2 3 4 5
1 last vote to show rating
add to favorites
×
Save as Personal and add changes to this tab that will be seen only by you. Learn more ›
×
You can save this tab as Personal to edit and correct it or add notes. All changes will be seen only by you. Learn more »
launch autoscroll
font size
0
reset
guitar tuner
backing track
0:00
0:00
edit
Autoscroll
slow
fast
+/-
esc
set tempo
stop
Drop D tuning


Intro/Chorus Riff

G---------------------------------------------------------|
D---------------------------------------------------------|
A--------------------------------------------7--8---------|
D--0h2-0-3b---0h2-0-3b---0h2-0h2-0h2-0-3b-/9---8-8-7-5----|

G----------------------------------------------------|
D----------------------------------------------------|
A----------------------------------------------------| both riffs through x2
D--0h2-0-3b---0h2-0-3b--0h2-0h2-----7b-7b-7b-7b-5b---|


Verse

G-------------------------------------------------------------|
D----------------------------------------4---2----------------|
A-------------------------------------------------3--2h3p2----|   x8
D-2-2-2-2--2-2-2-2--2-2-2-2--2-2-2-2----2---2---2----------3--|

Back to chorus riffs x2
Verse x4 
Chorus riffs x2 

G-----------------------------|
D-----------------------------|
A-------7/11------7/13--------|  x4
D--7-77------7-77-------------|

During solo play chorus riffs x2 
Chrous riffs till end!

            
            
Suggest correction
Creating personal tab
Creating personal tab
You can edit any tab online and save it as your Personal.

You can edit, replace or remove any tab part or add personal notes – all changes will be seen only by you.

Personal tabs can be accessed anytime from any device, even offline.
Learn more »
Give kudos to tab author, rate the tab!
1 2 3 4 5
comments
print report bad tab
1 comment total.
0 reply
VidelicetUnus 10 Feb 14, 2007 11:31 PM

utterly fantastic!! sounds great when played

guest
Wanna post a correction for this tab? Suggest correction