Oops, an error
Loading. Please wait.

Electric Hellfire bass

version 1
version 1

Whole song

906 views 1 this week
no commentswrite comment
1 2 3 4 5
2 more votes to show rating
add to favorites
×
Save as Personal and add changes to this tab that will be seen only by you. Learn more ›
×
You can save this tab as Personal to edit and correct it or add notes. All changes will be seen only by you. Learn more »
launch autoscroll
font size
0
reset
guitar tuner
edit
Autoscroll
slow
fast
+/-
esc
set tempo
stop
Artist: Black Label Society
Song: Electric Hellfire
Album: Mafia
Tabbed by: MangeuDePoutine

Bass: Tune down 1 step
1=F   3=G
2=C   4=D




(00:08 sec)      Intro              X3
|1:---------------------------------|
|2:---------------------------------|
|3:---------------------------5-7---|
|4:2-2-3-5--2-2-3-5--2-2-3-5-------7|

(00:19 sec)      Intro         X1
|1:----------------------------|
|2:----------------------------|
|3:---------------------------5|
|4:2-2-3-5--2-2-3-5--2-2-3-5---|

(00:23 sec)
                 Pre verse        X3
|1:-------------------------------|
|2:-------------------------------|
|3:-------------------------------|
|4:2-2-3-5--2-2-3-5--2-2-3-5--7--9|

(00:35 sec)
             Pre verse      X1
|1:-------------------------|
|2:-------------------------|
|3:-------------------------|
|4:2-2-3-5--2-2-3-5--2-2-3-5|

(00:39 sec)
              Verse               X3
|1:-------------------------------|
|2:-------------------------------|
|3:-------------------------------|
|4:2-2-3-5--2-2-3-5--2-2-3-5--7--9|

(00:50 sec)
              Verse         X1
|1:-------------------------|
|2:-------------------------|
|3:-------------------------|
|4:2-2-3-5--2-2-3-5--2-2-3-5|

(00:54 sec)
            Chorus       X3
|1:-----------------------|     * They are after the
|2:---------------------2*|       guitar vibrato.
|3:4-3-2-0-2-3-2------0*--|
|4:-----------------------|

(1:05 sec)
         After Chorus             X2
|1:-------------------------------|
|2:-------------------------------|
|3:-------------------------------|
|4:2-2-3-5--2-2-3-5--2-2-3-5--7--9|

(1:13 sec) Verse (X1)

(1:29 sec) Chorus (X1)

(1:40 sec)
           Solo                   X4
|1:-------------------------------|    Zakk Solo      
|2:-------------------------------|        
|3:-------------------------------|        
|4:2-2-3-5--2-2-3-5--2-2-3-5--7--9|

(1:55 sec)
           End Solo               X3
|1:-------------------------------|
|2:-------------------------------|
|3:-------------------------------|
|4:2-2-3-5--2-2-3-5--2-2-3-5--7--9|

(2:07 sec)
           Outro                X1
|1:-----------------------------|
|2:-----------------------------|
|3:-----------------------------|
|4:2-2-3-5--2-2-3-5--2-2-3-5--5\|


Tabbed by: MangeuDePoutine
Mail to: MangeuDePoutine@hotmail.com

Note: This is my first tab, so it can be bad.





            
            
Suggest correction
Creating personal tab
Creating personal tab
You can edit any tab online and save it as your Personal.

You can edit, replace or remove any tab part or add personal notes – all changes will be seen only by you.

Personal tabs can be accessed anytime from any device, even offline.
Learn more »
Give kudos to tab author, rate the tab!
1 2 3 4 5
comments
print report bad tab
guest
You may want to rate the tab now too:
select rating
Wanna post a correction for this tab? Suggest correction