Oops, an error
Loading. Please wait.

Fire It Up solo tab

version 2
version 2

Solo

Whole song

Interactive

6,731 views 9 this week
5 commentsread comments
1 2 3 4 5
2 more votes to show rating
add to favorites
×
Save as Personal and add changes to this tab that will be seen only by you. Learn more ›
×
You can save this tab as Personal to edit and correct it or add notes. All changes will be seen only by you. Learn more »
launch autoscroll
font size
0
reset
how to read this tab
guitar tuner
backing track
0:00
0:00
edit
Autoscroll
slow
fast
+/-
esc
set tempo
stop
Author
Song: Fire It Up
Band: Black Label Society
Album: Mafia
guitarist: Zakk Wylde




The whole song is in Drop d tuning here are the notes starting with the little E string   ( D A F C G D )


D|------------------15--------------18b20-18-----------------------|
A|---------------15----15--18b20~-------------18b20-18-15-18b20~---|
F|-17b19~--17b19---------------------------------------------------|
C|-----------------------------------------------------------------|
G|-----------------------------------------------------------------|
D|-----------------------------------------------------------------|

D|----------------------------------------------------|
A|-15--18b20r18-18b20r18-18b20r18-18b20r18-18b20------|
F|----------------------------------------------------|
C|----------------------------------------------------|
G|----------------------------------------------------|
D|----------------------------------------------------|

D|20b22-20-18-----------18b20----|
A|------------20-18-20~~---------|
F|-------------------------------|
C|-------------------------------|
D|-------------------------------|
G|-------------------------------|

D|-10h13t15-10h13t15-10h13t15-10h13t15-10h13t15-10h13t15---|
A|---------------------------------------------------------|
F|---------------------------------------------------------|
C|---------------------------------------------------------|
G|---------------------------------------------------------|
D|---------------------------------------------------------|

D|10h13t14-10h13t14-10h13t14-10h13t14-|10h12t13-10h12t13-10h12t13-10h12t13-|
A|-------------------------------------------------------------------------|
F|-------------------------------------------------------------------------|
C|-------------------------------------------------------------------------|
G|-------------------------------------------------------------------------|
D|-------------------------------------------------------------------------|

D|-------------15----------------------15------15-------15---------------|
A|----------------15-18b20----------15------15-------15---------b18------|
F|-17b19-17b19---------------17-b17-----b17------b17--------b17-----b17--|
C|-----------------------------------------------------------------------|
G|-----------------------------------------------------------------------|
D|-----------------------------------------------------------------------|
                                                                       
                                                                   and so on
D|------------------------------------------12h14p2h14-14h16p14h16---------|
A|----------------------------11h13p11h13p11-------------------------------|
F|--------------9h11p9h11p9h11---------------------------------------------|
C|-7h9p7h9p7h9p7-----------------------------------------------------------|
G|-------------------------------------------------------------------------|
D|-------------------------------------------------------------------------|

D|-18h20p18-15h18p15----18----15-------------|
A|-------------------18----18----18-15-18~---|
F|-------------------------------------------|
C|-------------------------------------------|
G|-------------------------------------------|
D|-------------------------------------------|

D|-18b20------------------18b20-------------------------|
A|--------20b22-20-18-20---------20b22-20-18----20b22~--|
F|-------------------------------------------19---------|
C|------------------------------------------------------|
G|------------------------------------------------------|
D|------------------------------------------------------|
                                                     (listen to the song
                                                     you'll understand)
                                                   \/\/pick as you release
D|-20b22r20-20b22r20-20b22r20-20b22r20-20b22r20~---20b22r20-------------|
A|----------------------------------------------------------20-18-20-20-|
F|----------------------------------------------------------------------|
C|----------------------------------------------------------------------|
G|----------------------------------------------------------------------|
D|----------------------------------------------------------------------|

Hope You Like It
Please Rate and Leave Comments


Suggest correction
Creating personal tab
Creating personal tab
You can edit any tab online and save it as your Personal.

You can edit, replace or remove any tab part or add personal notes – all changes will be seen only by you.

Personal tabs can be accessed anytime from any device, even offline.
Learn more »
Give kudos to tab author, rate the tab!
1 2 3 4 5
comments
print report bad tab
5 comments total. Showing first comments.
0 reply
FenderFreak626 15 Mar 11, 2007 05:00 PM

yur tuning is for standard not drop d

0 reply
jhalfacre_21 15 Mar 17, 2007 12:05 AM

oops....I apoligize for that

0 reply
jhalfacre_21 15 Apr 13, 2007 12:09 PM

just tune down a WHOLE step

guest
You may want to rate the tab now too:
select rating
Wanna post a correction for this tab? Suggest correction