Oops, an error
Loading. Please wait.

Fire It Up bass

version 3
version 3

Whole song

Interactive

6,687 views 1 this week
2 commentsread comments
1 2 3 4 5
x 3
add to favorites
×
Save as Personal and add changes to this tab that will be seen only by you. Learn more ›
×
You can save this tab as Personal to edit and correct it or add notes. All changes will be seen only by you. Learn more »
launch autoscroll
font size
0
reset
guitar tuner
backing track
0:00
0:00
edit
Autoscroll
slow
fast
+/-
esc
set tempo
stop
Author
Difficulty
Black Label Society - Fire it Up

I saw a pretty good tab of this song by Dev Fuld, but he missed some stuff thats kind of 
to hear if you dnt have it cranked up, especially the last part of the bridge where he 
up which drove me crazy trying to figure out.


Intro (come in with Drums @ 0:34)
Gb|-------------------------------------------------------------------|
Db|-------------------------------------------------------------------|
Ab|-----------------------------------------2-2-2-2p0-----------------|
Eb|2-2-2-2-2-2-2-012-2-2-2-2-2-2-210-0-0-0h2---------2-2-2-2-2-2-2-01-|

Intro variation
Gb|-------------------------------------------------------------------|
Db|-------------------------------------------------------------------|
Ab|-----------------------------------------2-2-2-2p0-----------------|
Eb|2-2-2-2-2-2-2-012-2-2-2-2-2-2-210-0-0-0h2---------2-2-2-2-2-2-2/12\|

Intro x2

Verse x8 (similar to intro but play all notes staccato)
Gb|-----------------------------------------------------------------|
Db|-----------------------------------------------------------------|
Ab|----------------------------------------2-2-2-20-----------------|
Eb|2-2-2-2-2-2-2-012-2-2-2-2-2-2-210-0-0-02--------2-2-2-2-2-2-2-01-|

Chorus x2
Gb|------------------------------------------------------|
Db|------------------------------------------------------|
Ab|------------------------------------------------------|
Eb|-7-7--7-7-7-7-7-7-7-7-7-7/17\--2-2--2-2--2-2--2-2/12\-|

Bridge
Gb|--------------------------------|
Db|--------------------------------|
Ab|--------------------------------|
Eb|-5-5-5-5-5-5-5-5-0-0-0-0-0-0-0-0|

Gb|--------------------------------------------|
Db|--------------------------------------------|
Ab|--------------------------------------------|
Eb|-0-0-2-0-2--0-0-2-0-2--0-0-2-0-2--0-0-2-0-2-|

Gb|-------------------------------------------------------|
Db|-------------------------------------------------------|
Ab|-------------------------------------------------------|
Eb|-5-5-5-5-5-5-5-5-7-7-7-7-7-5-7-5-7-5-7-5///19-19-19-19-|

During guitar solo play: Intro x2, Chorus x2, and Bridge

Repeat Verse and fade out
Suggest correction
Creating personal tab
Creating personal tab
You can edit any tab online and save it as your Personal.

You can edit, replace or remove any tab part or add personal notes – all changes will be seen only by you.

Personal tabs can be accessed anytime from any device, even offline.
Learn more »
Give kudos to tab author, rate the tab!
1 2 3 4 5
comments
print report bad tab
2 comments total.
+1 reply
wesfield 219 Mar 09, 2008 06:12 AM

pretty good tab i cnt fault it &:)

0 reply
xeagl 10 Apr 08, 2009 06:31 AM

e dude, i think this is just alright :)

guest
You may want to rate the tab now too:
select rating
Wanna post a correction for this tab? Suggest correction