Oops, an error
Loading. Please wait.

Graveyard Disciples Tab

version 2
version 2

Whole song

Interactive

2,153 views 3 this week
no commentswrite comment
1 2 3 4 5
1 last vote to show rating
add to favorites
launch autoscroll
font size
0
reset
how to read this tab
guitar tuner
Autoscroll
slow
fast
+/-
esc
set tempo
stop
Help us to improve Ultimate-Guitar.com Take our survey!
×
Author
Difficulty
Tuning
  follow
intermediate
C G C F A D
Artist: Black Label Society
Song: Graveyard Disciples
Album: 1919 Eternal

Tabbed by: Scott Rae

Main Riff/Intro/Verse
D------------------------------------------|
A------------------------------------------|
F-----------------------------------5/7\5--|
C-0-0-0-0-0-0-0-0-1--0-0-0-0-0-0-0---------|		x8
G-0-0-0-0-0-0-0-0-1--0-0-0-0-0-0-0--3/5\3--|
C-0-0-0-0-0-0-0-0-1--0-0-0-0-0-0-0---------|
  . . . . . . . .    . . . . . . .

Chorus (Rhythm)
D------------------------------------------|
A------------------------------------------|
F------------------------------------------|
C-5---6---5---3----5---6---5---3-----------|		x1
G-5---6---5---3----5---6---5---3----3ph----|
C-5---6---5---3----5---6---5---3-----------|


Chorus (Lead)
D---------------------------------------------|
A---------------------------------------------|
F---------12----------------8-----------------|
C-----12-----12----------8----8---------------|        x3
G--10-----------10-----6--------6-------------|
C---------------------------------------------|

D------------------------------------|
A------------------------------------|
F---------12----------------10-------|
C-----12-----12----------10----10----|		x1
G--10-----------10-----8----------8--|
C------------------------------------|

Verse 2.1
D------------------------------------------|
A------------------------------------------|
F-----------------------------------5/7\5--|
C-0-0-0-0-0-0-0-0-1--0-0-0-0-0-0-0---------|		x1
G-0-0-0-0-0-0-0-0-1--0-0-0-0-0-0-0--3/5\3--|
C-0-0-0-0-0-0-0-0-1--0-0-0-0-0-0-0---------|
  . . . . . . . .    . . . . . . .

Verse 2.2
D------------------------------------------|
A------------------------------------------|
F------------------------------------------|
C-0-0-0-0-0-0-0-0-1--0-0-0-0-0-0-0x--------|		x1
G-0-0-0-0-0-0-0-0-1--0-0-0-0-0-0-0x--------|
C-0-0-0-0-0-0-0-0-1--0-0-0-0-0-0-0x--------|
  . . . . . . . .    . . . . . .

Repeat 'Verse 2.1' Riff x4
Chorus Riff (As before)


Pre-solo and solo riffs (I haven't tabbed the solo though)
D---------------------------------------------------|
A---------------------------------------------------|
F---------------------------------------------------|
C---------------------------------------------------|    x4
G---5p3-5-3-5p3-5---3-5/6---5p3-5-3-5p3-5--3-6------|
C---------------------------------------------------|

D----------------------------------------------|
A----------------------------------------------|
F----------------------------------------------|
C----------------------------------------------|	x2
G---7p5-7-5-7p5-7---5-7/8---7p5-7-5-7p5-7--5-8-|
C----------------------------------------------|

D------------------------------------------------|
A------------------------------------------------|
F------------------------------------------------|
C------------------------------------------------|	x2
G---9p7-9-7-9p7-9---7-9/10---9p7-9-7-9p7-9--7-10-|
C------------------------------------------------|

Chorus Riffs x1

Then finally

D------------------------------------------|
A------------------------------------------|
F-----------------------------------5/7\5--|
C-0-0-0-0-0-0-0-0-1--0-0-0-0-0-0-0---------|		x3
G-0-0-0-0-0-0-0-0-1--0-0-0-0-0-0-0--3/5\3--|
C-0-0-0-0-0-0-0-0-1--0-0-0-0-0-0-0---------|
  . . . . . . . .    . . . . . . .

D------------------------------------------|
A------------------------------------------|
F------------------------------------------|
C-0-0-0-0-0-0-0-0-1--0-0-0-0-0-0-0x--------|		x1
G-0-0-0-0-0-0-0-0-1--0-0-0-0-0-0-0x--------|
C-0-0-0-0-0-0-0-0-1--0-0-0-0-0-0-0x--------|
  . . . . . . . .    . . . . . .
Suggest correction
Give kudos to tab author, rate the tab!
1 2 3 4 5
comments
print report bad tab
guest
You may want to rate the tab now too:
select rating
Wanna post a correction for this tab? Suggest correction