Oops, an error
Loading. Please wait.

Hell Is High bass

version 1
version 1

Whole song

Interactive

721 views 1 this week
1 commentread comment
1 2 3 4 5
3 more votes to show rating
add to favorites
×
Save as Personal and add changes to this tab that will be seen only by you. Learn more ›
×
You can save this tab as Personal to edit and correct it or add notes. All changes will be seen only by you. Learn more »
launch autoscroll
font size
0
reset
guitar tuner
edit
Autoscroll
slow
fast
+/-
esc
set tempo
stop
Artist: Black Label Society
Song: Hell Is High
Album: Shot to Hell
Tabbed by: MangeuDePoutine

Bass: Tune down 1 step


(00:15 sec)  Riff         X4
|1:-----------------------|
|2:------------5----------|
|3:--------------7-6-5----|
|4:5---5---5-----------0-3|

(00:29 sec)                Verse                          X2
|1:-------------------------------------------------------|There is a clean 
|2:-------------------------------------------------------|guit, but she 
|3:-------------------------------------------------------|dont do the same
|4:5-5-5-5-5-5-5-5-5-5-5-5-5-5-3-3-3-3-3-3-3-1-1-1-1-1-1-1|thing than the
                                                           bass.
  
(00:43 sec)                Chorus(Same as Verse)          X2
|1:-------------------------------------------------------| 
|2:-------------------------------------------------------|  
|3:-------------------------------------------------------| 
|4:5-5-5-5-5-5-5-5-5-5-5-5-5-5-3-3-3-3-3-3-3-1-1-1-1-1-1-1|

(00:57 sec) Riff      X4 

(1:11 sec)  Verse     X2

(1:25 sec)  Chorus    X2

(1:40 sec)  Riff      X8

(2:07 sec)Solo(Same as Riff)X4
|1:-----------------------|
|2:------------5----------|
|3:--------------7-6-5----|
|4:5---5---5-----------0-3|

(2:22 sec)  Verse     X2

(2:36 sec)  Chorus    X2

(2:50 sec)  Riff      X10

(3:25 sec)  Outro X1
|1:---------------|
|2:---------------|
|3:---------------|
|4:5--------------|


The guitar do the same thing except the 


|1:-----------------------|
|2:------------5----------|
|3:--------------7-6-5----|
|4:5---5---5-----------0-3|

The guitar do

|1:--------------------------|
|2:--------------------------|
|3:--------------------------|
|4:---------------5----------|
|5:-----------------7-6-5----|
|6:/5---/5---/5-----------0-3|
                    P P P P P

Tabbed by: MangeuDePoutine
Mail to: MangeuDePoutine@hotmail.com



            
            
Suggest correction
Creating personal tab
Creating personal tab
You can edit any tab online and save it as your Personal.

You can edit, replace or remove any tab part or add personal notes – all changes will be seen only by you.

Personal tabs can be accessed anytime from any device, even offline.
Learn more »
Give kudos to tab author, rate the tab!
1 2 3 4 5
comments
print report bad tab
1 comment total.
0 reply
MangeuDePoutine 1,289 Jun 06, 2007 12:24 PM

It's not my first tab, its because i copy and paste the end of my first tab...

guest
You may want to rate the tab now too:
select rating
Wanna post a correction for this tab? Suggest correction