Oops, an error
Loading. Please wait.

Last Goodbye tab

version 1
version 1

Whole song

Interactive

4,699 views 6 this week
1 commentread comment
1 2 3 4 5
1 last vote to show rating
add to favorites
×
Save as Personal and add changes to this tab that will be seen only by you. Learn more ›
×
You can save this tab as Personal to edit and correct it or add notes. All changes will be seen only by you. Learn more »
launch autoscroll
font size
0
reset
how to read this tab
guitar tuner
edit
Autoscroll
slow
fast
+/-
esc
set tempo
stop
Last Goodbye
Black Label Society


Intro: E-C#m-A-B

Verse:
E                  C#m
Take me down this road
A                         B
I've been down here once before
E                   C#m
Take me down this road
A                               B
Once again never again forever more
E                   C#m     A
Take me down this road once more

E
Take this love
C#m
Take this life
B
Take this blood you'll never die X2
A
This is the last good bye

Verse:

E                  C#m
Take me down this road
A                              B
Just to see the smile on your face
E                   C#m
Take me down this road
A                                       B
All that is and all that was can't be replaced
E                   C#m     A
Take me down this road once more

E
Take this love
C#m
Take this life
B
Take this blood you'll never die X2
A
This is the last good bye

SOLO:

e|---------------------------------------------------------------------|
b|---------------------------------------------------------------------|
g|---------------------------------------------------------------------|
d|---------------------------------------------------------------------|
a|---------------------------------------------------------------------|
E|0--------------------------------------------------------------------|
  Drive down E string before solo starts


e|-17-16-14-12----------|17-16-14-17^----------|-17-16-14-12-16^--14--|
b|-------------15-13-12-|----------------------|----------------------|
g|----------------------|----------------------|----------------------|
d|----------------------|----------------------|----------------------|
a|----------------------|----------------------|----------------------|
E|----------------------|----------------------|----------------------|


e|-17-16-14-12----------|17-16-14-19^----------|-17-16-14-12-16^--14--|
b|-------------15-13-12-|----------------------|----------------------|
g|----------------------|----------------------|----------------------|
d|----------------------|----------------------|----------------------|
a|----------------------|----------------------|----------------------|
E|----------------------|----------------------|----------------------|

E
Take this love
C#m
Take this life
B
Take this blood you'll never die X2
A
This is the last good bye

            
            
Suggest correction
Creating personal tab
Creating personal tab
You can edit any tab online and save it as your Personal.

You can edit, replace or remove any tab part or add personal notes – all changes will be seen only by you.

Personal tabs can be accessed anytime from any device, even offline.
Learn more »
Give kudos to tab author, rate the tab!
1 2 3 4 5
comments
print report bad tab
1 comment total.
0 reply
Tias 181 Jun 19, 2007 10:22 AM

Wrong Chords, did you really listend?

guest
Wanna post a correction for this tab? Suggest correction