Oops, an error
Loading. Please wait.

New Religion tab

version 1
version 1

Whole song

Interactive

14,658 views 9 this week
2 commentsread comments
1 2 3 4 5
x 6
add to favorites
×
Save as Personal and add changes to this tab that will be seen only by you. Learn more ›
×
You can save this tab as Personal to edit and correct it or add notes. All changes will be seen only by you. Learn more »
launch autoscroll
font size
0
reset
how to read this tab
guitar tuner
edit
Autoscroll
slow
fast
+/-
esc
set tempo
stop
Black Label Society

New Religion




D standard tuning (DGCFAD)

after piano/guitar intro

verse
|-------------------------------------|
|-------------------------------------|
|-------------------------------------|
|-------------------------------------|
|-------------------------------------|
|0-1210-0-1312-0-1210-1312-0-121012---|


chorus
|------------------------------------------|
|------------------------------------------|
|-9------5--7------------------------------|
|-9------5--7------------------------------|
|-7------3--5---5h7 5h7 5h7-5*-------------|
|------------------------------6-5-3-0-----|


|------------------------------------------|
|------------------------------------------|
|-9----5--7--------------------------------|
|-9----5--7---------------7-5-----7-5------|
|-7----3--5---5h7-5h7-5h7-----7-5-----7-5--|
|------------------------------------------|


|------------------------------------------|
|------------------------------------------|
|-9------5--7------------------------------|
|-9------5--7------------------------------|
|-7------3--5---5h7 5h7 5h7-5*-------------|
|------------------------------6-5-3-0-----|


|------------------------------------|
|------------------------------------|
|-9------5--7------------------------|
|-9------5--7------------------------|
|-7------3--5---back into verse riff-|
|------------------------------------|



during solo
|------------------------------------|
|------------------------------------|
|-5----7s9s11s12s14------------------|
|-5----------------------------------|
|-3----5s7s9 s10s12------------------| 3x
|------------------------------------|

|------------------------------------|
|------------------------------------|
|-5------7---------------------------|
|-5------7---------------------------|
|-3------5---------------------------|
|------------------------------------|

back into verse riff



verse
chorus
verse
chorus
verse
solo riff
verse



the solo isnt exact..


with wah pedal
|------------------------------------------------|
|-15^17~~~--1512----1512----1512----1512---------|
|---------------1512----1512----1512----1512-----|
|------------------------------------------------|
|------------------------------------------------|
|------------------------------------------------|


|-171512------171512------171512-------------------|
|-------171512------171512------171512-------------|
|----------------------------------------12^14^12--|
|--------------------------------------------------|
|--------------------------------------------------|
|--------------------------------------------------|


|------------------------------------------------|
|-22^23^22~~--20h22p20~~--192019-----------------|
|-------------------------------19---------------|
|---------------------------------19s17----------|
|--------------------------------------19--------|
|------------------------------------------------|


|------------------------------------171514171514171514---|
|------------------171513171513171513---------------------|
|161412161412161412---------------------------------------|
|---------------------------------------------------------|
|---------------------------------------------------------|
|---------------------------------------------------------|


|-19191919191919---------------------------------|
|-------------------15^17~~~~--------------------|
|------------------------------------------------|
|------------------------------------------------|
|------------------------------------------------|
|------------------------------------------------|

            
            
Suggest correction
Creating personal tab
Creating personal tab
You can edit any tab online and save it as your Personal.

You can edit, replace or remove any tab part or add personal notes – all changes will be seen only by you.

Personal tabs can be accessed anytime from any device, even offline.
Learn more »
comments
print report bad tab
2 comments total.
0 reply
Kid Fisto 161 Nov 25, 2006 12:48 PM

The Intro is a harpsichord, playing the intro guitar riff. jsyk. the tab is good, and the solo isn't all that bad.

0 reply
metalhead2287 52 Dec 06, 2006 02:00 PM

Theres a couple notes missing here and there and the solo needs a lil work but overall its good...

guest
Wanna post a correction for this tab? Suggest correction