Oops, an error
Loading. Please wait.

Overlord Bass

version 1
version 1

Whole song

Interactive

599 views 3 this week
no commentswrite comment
1 2 3 4 5
3 more votes to show rating
add to favorites
×
Save as Personal and add changes to this tab that will be seen only by you. Learn more ›
×
You can save this tab as Personal to edit and correct it or add notes. All changes will be seen only by you. Learn more »
save as personal
new!
launch autoscroll
font size
0
reset
guitar tuner
Autoscroll
slow
fast
+/-
esc
set tempo
stop
Author
Difficulty
Tuning
advanced
C F A# D#
Black Label Society
Order of the Black
Bass tab: C standard tuning
Tab by Pindapoeper; Contact: martijn_b_182@hotmail.com

I think the song is played in D with a four string bass, or an 5 string in B. 
I tabt it out for myself and my bases are in C.
Chorus is a bit off.. but this is the best that i could do.

Intro:
D#:|---------------------------------------|
A#:|---------------------------------------|
F :|-2-2-----2-----------------------------|
C :|-----2-2-------------------------------|

Verse: 10x
D#:|---------------------------------------|
A#:|---------------------------------------|
F :|-------------4h5p4~----------2-2-----2-|
C :|-4-4-4-2-4-2---------------------2-2---|

Chorus:
D#:|----------3h4\6------------3-1---------|
A#:|----------------4~------4--------------|
F :|--------------------------------2------|
C :|-4----4--------------------------------|

D#:|-4---4----4-------------6h7p6\4h6p4----|
A#:|--------2~---2-1~------------------h6h4|
F :|---------------------------------------|
C :|------------------4-4-4----------------|

D#:|----------3h4\6------------3-1---------|
A#:|----------------4~-----4---------------|
F :|---------------------------------2-----|
C :|-4----4--------------------------------|

D#:|-4----4-----4------------------------4-|
A#:|--------2~----2-1~------------4--4h6---|
F :|--------------------------4h6----------|
C :|--------------------4-4-4--------------|

Verse: 10x
D#:|---------------------------------------|
A#:|---------------------------------------|
F :|-------------4h5p4~----------2-2-----2-|
C :|-4-4-4-2-4-2---------------------2-2---|
 

Chorus:
D#:|----------3h4\6------------3-1---------|
A#:|----------------4~------4--------------|
F :|--------------------------------2------|
C :|-4----4--------------------------------|

D#:|-4---4----4-------------6h7p6\4h6p4----|
A#:|--------2~---2-1~------------------h6h4|
F :|---------------------------------------|
C :|------------------4-4-4----------------|

D#:|----------3h4\6------------3-1---------|
A#:|----------------4~-----4---------------|
F :|---------------------------------2-----|
C :|-4----4--------------------------------|

D#:|-4----4-----4------------------------4-|
A#:|--------2~----2-1~------------4--4h6---|
F :|--------------------------4h6----------|
C :|--------------------4-4-4--------------|

Verse: 4x
D#:|---------------------------------------|
A#:|---------------------------------------|
F :|-------------4h5p4~----------2-2-----2-|
C :|-4-4-4-2-4-2---------------------2-2---|
 
Bridge:
D#:|-----------------------------------------------------------|        \
A#:|------------------------------------3----------------------|        |
F :|----------------------------1-3-4-5---4-3-1-0--------------|        |
C :|-3--3-3-3-3-3--3-3-3-3-3--3-------------------3--3-3-3-3-3-|        |
                                                                        |4x
D#:|---------------------------------------|                            |
A#:|---------5-3-0-5-3-0-5-3-0-------------|                            |
F :|---------------------------4-3-1-0-----|                            |
C :|-3-3-3-3-------------------------------|                            /

D#:|-----------------------------------------------------------|        \
A#:|------------------------------------5----------------------|        |
F :|-0--0-0-0-0-0--0-0-0-0-0--0-3-5-6-7---6-5-3-2-0--0-0-0-0-0-|        |
C :|-----------------------------------------------------------|        |
                                                                        |2x                                                                                                                                     
D#:|---------------------------------------|                            |
A#:|---------7-5---7-5---7-5---------------|                            |
F :|-0-0-0-0-----7-----7-----7-6-5-3-2-----|                            |
C :|---------------------------------------|                            /

D#:|-----------------------------------------------------------|        \
A#:|------------------------------------3----------------------|        |
F :|----------------------------1-3-4-5---4-3-1-0--------------|        |
C :|-3--3-3-3-3-3--3-3-3-3-3--3-------------------3--3-3-3-3-3-|        |
                                                                        |2x
D#:|---------------------------------------|                            |
A#:|---------5-3-0-5-3-0-5-3-0-------------|                            |
F :|---------------------------4-3-1-0-----|                            |
C :|-3-3-3-3-------------------------------|                            /

Bridge end: 4x
D#:|---------------------------------------|
A#:|---------------------------------------|
F :|-------------6-4~----------------------|
C :|-6-6-6-6-6-6-------6-6-6-6-6-6-6-4~----|
 

Verse:8x
D#:|---------------------------------------|
A#:|---------------------------------------|
F :|-------------4h5p4~----------2-2-----2-|
C :|-4-4-4-2-4-2---------------------2-2---|

Chorus:
D#:|----------3h4\6------------3-1---------|
A#:|----------------4~------4--------------|
F :|--------------------------------2------|
C :|-4----4--------------------------------|

D#:|-4---4----4-------------6h7p6\4h6p4----|
A#:|--------2~---2-1~------------------h6h4|
F :|---------------------------------------|
C :|------------------4-4-4----------------|

D#:|----------3h4\6------------3-1---------|
A#:|----------------4~-----4---------------|
F :|---------------------------------2-----|
C :|-4----4--------------------------------|

D#:|-4----4-----4------------------------4-|
A#:|--------2~----2-1~------------4--4h6---|
F :|--------------------------4h6----------|
C :|--------------------4-4-4--------------|

Outro:1x 
D#:|---------------------------------------|
A#:|---------------------------------------|
F :|-------------4h5p4~----------2-2-----2~|
C :|-4-4-4-2-4-2---------------------2-2---|


 
Suggest correction
Give kudos to tab author, rate the tab!
1 2 3 4 5
comments
print report bad tab
guest
You may want to rate the tab now too:
select rating
Wanna post a correction for this tab? Suggest correction