Oops, an error
Loading. Please wait.

Say What You Will tab

version 1
version 1

Whole song

Interactive

2,598 views 12 this week
no commentswrite comment
1 2 3 4 5
3 more votes to show rating
add to favorites
×
Save as Personal and add changes to this tab that will be seen only by you. Learn more ›
×
You can save this tab as Personal to edit and correct it or add notes. All changes will be seen only by you. Learn more »
launch autoscroll
font size
0
reset
how to read this tab
guitar tuner
edit
Autoscroll
slow
fast
+/-
esc
set tempo
stop
Ok Fairly Easy Song.......

Tabbed by: Garrett

Drop D tuning: D A D G B E
Key:Ph~: Pinch Harmonic
      /: Slide
      ~: Let Ring


Lead And Rhythm Guitars                            |Main Riff|
E|-------------------------------------------------------------|
B|-------------------------------------------------------------|
G|-------------------------------------------------------------|
D|7/8-8/7-7/5-5-2-----------------7/8-8/7-7/5-5-2--2-2-2-------|
A|7/8-8/7-7/5-5-2--------5--------7/8-8/7-7/5-5-2--2-2-2-3ph~--|
D|7/8-8/7-7/5-5-2--7-8-9---9-8-7--7/8-8/7-7/5-5-2--2-2-2-------|
                 PM-------------]                PM------------|

Lead And Rhthym Guitars
                   1st Ending               2nd Ending |Pre Chorus Riff|
E|---------------------|---|--------------------|---|----------|
B|---------------------|---|--------------------|---|----------|
G|---------------------|---|--------------------|---|----------|
D|2/4--4-4-4~-4-4-4-4-4|7-9|2/4--4-4-4~-4-4-4-4-|9-7|----------|
A|2/4--4-4-4~-4-4-4-4-4|7-9|2/4--4-4-4~-4-4-4-4-|9-7|----------|
D|2/4--4-4-4~-4-4-4-4-4|7-9|2/4--4-4-4~-4-4-4-4-|9-7|----------|
     PM--------------------------------------------------------| PM-]PM-]PM-]

Lead and Rhythm Guitars
                                                    |Chorus Riff|
E|-----------------------------------------------------------|-----|-------|
B|-----------------------------------------------------------|-----|-------|
G|-----------------------------------------------------------|-----|-------|
D|2-----------------------------/4--------5~-----------------|-4~-0|-------|
A|2-----------------------------/4--------3~-----------------|-4~-0|-------|
D|2~----------------------------/4---------------------------|-----|-------|
                                             2nd Ending---------^----------|

Lead and Rhythm Guitars
                                                    |Bridge Riff|
E|-------------------------------------------------------------------|
B|-------------------------------------------------------------------|
G|-------------------------------------------------------------------|
D|2-2-0-0-2-2-0-0-2-2-2-2-2-2-2--------------------------------------|
A|2-2-0-0-2-2-0-0-2-2-2-2-2-2-2--------------------------------------|
D|2-2-0-0-2-2-0-0-2-2-2-2-2-2-2--------------------------------------|
    PM---] PM----]PM-------------------------------------------------|

Rhythm Guitar(Lead is doing solo)
                  1st Ending               2nd Ending  |Solo Rhythm|PT.1
E|---------------------|---|--------------------|---|---------|
B|---------------------|---|--------------------|---|---------|
G|---------------------|---|--------------------|---|---------|
D|2/4--4-4-4~-4-4-4-4-4|7-9|2/4--4-4-4~-4-4-4-4-|9-7|---------|
A|2/4--4-4-4~-4-4-4-4-4|7-9|2/4--4-4-4~-4-4-4-4-|9-7|---------|
D|2/4--4-4-4~-4-4-4-4-4|7-9|2/4--4-4-4~-4-4-4-4-|9-7|---------|
     PM--]  PM-]PM-]PM-]

                  1st Ending               2nd Ending  |Solo Rhythm|PT.2
E|--------------------|----|--------------------|----|---------|
B|--------------------|----|--------------------|----|---------|
G|--------------------|----|--------------------|----|---------|
D|4/6--4-4-~-6-6-6-6-6|9-10|4/6--4-4-~-6-6-6-6-6|10-9|---------|
A|4/6--4-4-~-6-6-6-6-6|9-10|4/6--4-4-~-6-6-6-6-6|10-9|---------|
D|4/6--4-4-~-6-6-6-6-6|9-10|4/6--4-4-~-6-6-6-6-6|10-9|---------|
    PM--]  PM-]PM-]PM-]       PM-------------------------------|  PM-]PM-]PM-]

There you are!!! This is 100% correct!!!
Any comments or questions...email me at verse5_subliminal@hotmail.com
The order to the song is listed below....Enjoy!!!


Order

Main Riff.........4x
Pre Chorus Riff...2x
Main Riff.........1x
Chorus Riff.......2x
Main Riff.........4x
Pre Chorus Riff...2x
Main Riff.........1x
Chorus Riff.......2x
Bridge Riff.......4x
Solo Rythm Pt.1...2x
Solo Rythm Pt.2...2x
Chorus Riff.......2x
Main Riff.........2x

            
            
Suggest correction
Creating personal tab
Creating personal tab
You can edit any tab online and save it as your Personal.

You can edit, replace or remove any tab part or add personal notes – all changes will be seen only by you.

Personal tabs can be accessed anytime from any device, even offline.
Learn more »
Give kudos to tab author, rate the tab!
1 2 3 4 5
comments
print report bad tab
guest
Wanna post a correction for this tab? Suggest correction