Oops, an error
Loading. Please wait.

Sold My Soul Tab

version 1
version 1

Intro

Whole song

Interactive

3,839 views 3 this week
3 commentsread comments
1 2 3 4 5
2 more votes to show rating
add to favorites
launch autoscroll
font size
0
reset
how to read this tab
guitar tuner
×
Best way to learn
"Sold My Soul"
Autoscroll
slow
fast
+/-
esc
set tempo
stop
Black Label Society
Sold My Soul   INTRO

Standard Tuning  E  A  D  G  B  E

e-------------------------------------------|
B-------------------------------------------|
G----------------0-------------------0------|
D------------4-------------------4----------|
A--------2-------------------2--------------|
E----0-------------------3------------------|


e-------------------------------------------|
B-------------------------------------------|
G---------0----------7h6--6-6---7h6--6-6----|
D-----7--------7-----7----7-7---7----7-7----|
A-5------------------0----0-0---0----0-0----|
E-------------------------------------------|
Suggest correction
Give kudos to tab author, rate the tab!
1 2 3 4 5
comments
print report bad tab
3 comments total.
0 reply
crazydexsmack 10 Jul 13, 2005 08:00 PM

I love this song....bt the tab needs more detail.

0 reply
kylehugs666 10 Apr 17, 2008 07:31 AM

i found an error
----------------------------
----------------------------
-------0--------------------
----------4-----------------
----2-----------------------
-3--------------------------

0 reply
kylehugs666 10 Apr 17, 2008 07:32 AM

not
-------------------------
-------------------------
--------0----------------
------4------------------
----2--------------------
--3----------------------

guest
You may want to rate the tab now too:
select rating
Wanna post a correction for this tab? Suggest correction