Oops, an error
Loading. Please wait.

Spoke In The Wheel Chords

version 2
version 2

Whole song

Interactive

6,053 views 48 this week
no commentswrite comment
1 2 3 4 5
excellent!
x 5
add to favorites
launch autoscroll
font size
0
reset
transpose
0
reset
simplify chords
- display chords -
guitar tuner
Tab Pro tools
  • play this tab
  • loop segment
  • change instrument
  • show fretboard
  • metronome
Autoscroll
slow
fast
+/-
esc
set tempo
stop
Contributor
Difficulty
Tuning
novice
D# G# C# F# A# D#
Band:  Black Label Society
Song:  Spoke in the Wheel
Album: Sonic Brew


Intro, Verse 1 and 2


Cmaj                 Gmaj              Am               Em

---0--------------- ---3------------ ---0------------- ---------------------|
---1--------------- ---3------------ ---1------------- ---0-----------------|
---0--------------- ---0------------ ---2------------- ---0-----------------|
---2--------------- ---0------------ ---2------------- ---2-----------------|
---3--------------- ---2------------ ----------------- ---2-----------------|
------------------- ---3------------ ----------------- ---------------------|


Note: Cadd9 chord leads into chorus



Chorus


Gmaj          A7sus4                Cadd9

---3--------- ---3----------------- ---0-------------------------------------
---3--------- ---3----------------- ---0-------------------------------------
---0--------- ---2----------------- ---0-------------------------------------
---0--------- ---2----------------- ---2-------------------------------------
---2--------- --------------------- ---3-------------------------------------
---3--------- --------------------- -----------------------------------------




~Intro~

Cmaj     Gmaj      Am

Cmaj     Gmaj      Em




~Verse 1~

Cmaj           Gmaj                Am 
Lord, I question whether I've had my fill

Cmaj           Gmaj                Em
Lord, I question whether I can take much more


Cmaj           Gmaj                Am
You may laugh as I lay here bleeding baby, yeah


Cmaj           Gmaj      Em
No more afters or befores


Cadd9



~Chorus~


Gmaj           A7sus4             Cadd9
Some day you'll know just how I feel

Gmaj           A7sus4          Cadd9
You left me there twice before

Gmaj           A7sus4          Cadd9
Some day you'll know just how it feels

Gmaj                    Em      

Shattered, cast aside, stripped of your pride

A7sus4

Like you were never nothing special

           Cadd9                        Gmaj

Made you feel like another spoke in the wheel



~Verse 2~



Cmaj           Gmaj                Am 
So you say I'm just another dollar baby

Cmaj           Gmaj                Em
So you say I'm just another day, yeah

Cmaj           Gmaj                Am 
Once my blood was strong but now it's jaded and it's thin

Cmaj           Gmaj                Em
Unlike you I can still tell right from wrong


Cadd9



~Chorus~


Gmaj           A7sus4             Cadd9
Some day you'll know just how I feel

Gmaj           A7sus4          Cadd9
You left me there twice before

Gmaj           A7sus4          Cadd9
Some day you'll know just how it feels

Gmaj                    Em      

Shattered, cast aside, stripped of your pride

A7sus4

Like you were never nothing special

           Cadd9                        Gmaj

Made you feel like another spoke in the wheel




~solo~




~Chorus~


Gmaj           A7sus4             Cadd9
Some day you'll know just how I feel

Gmaj           A7sus4          Cadd9
You left me there twice before

Gmaj           A7sus4          Cadd9
Some day you'll know just how it feels

Gmaj                    Em      

Shattered, cast aside, stripped of your pride

A7sus4

Like you were never nothing special

           Cadd9                        Gmaj

Made you feel like another spoke in the wheel







~end~



*Comment/Rate*
comments
print report bad tab
I want to post or [tab]
guest
You may want to rate the tab now too:
select rating
Please do not post tabs as comments. Select "correction" instead!