Oops, an error
Loading. Please wait.

Stillborn Tab

version 1
version 1

Whole song

Interactive

96,656 views 81 this week
15 commentsread comments
1 2 3 4 5
x 14
add to favorites
launch autoscroll
font size
0
reset
how to read this tab
guitar tuner
backing track
0:00
0:00
×
Best way to learn
"Stillborn"
Autoscroll
slow
fast
+/-
esc
set tempo
stop
Tuning: Eb Ab Db Gb Bb Eb

[Intro]   
(Pinch harmonic the note)
(x2)
e|------------------------|--------------------------------------|
B|------------------------|--------------------------------------|
G|------------------------|--------------------------------------|
D|------------------------|--------------------------------------|
A|------------------------|--------------------------------------|
E|-2-2-2-2-2--2-2-2-2-2---|--------------------------------------|

The feelings I once felt... 
(listen for the rhythm)
e|--------------------------------------------------------------|
B|--------------------------------------------------------------|
G|--------------------------------------------------------------|
D|--------------------------------------------------------------|
A|-2-2-2-2-2-2-2-2-2-2------------------------------------------|
E|-0-0-0-0-0-0-0-0-0-0------------------------------------------|

Gone....
e|--------------------------------------------------------------|
B|--------------------------------------------------------------|
G|--------------------------------------------------------------|
D|--------------------------------------------------------------|
A|--------------------------------------------------------------|
E|-2-2-2-2-2--2-2-2-2-2-----------------------------------------|

Ive waited here for you...
e|--------------------------------------------------------------|
B|--------------------------------------------------------------|
G|--------------------------------------------------------------|
D|--------------------------------------------------------------|
A|-2-2-2-2-2-2-2-2-2-2------------------------------------------|
E|-0-0-0-0-0-0-0-0-0-0------------------------------------------|

Long....
e|--------------------------------------------------------------|
B|--------------------------------------------------------------|
G|--------------------------------------------------------------|
D|--------------------------------------------------------------|
A|--------------------------------------------------------------|
E|-2-2-2-2-2--2-2-2-2-2-----------------------------------------|

e|-------6\5-------------------------------5---------------------|
B|----2--6\5-------------------------------5---------------------|
G|----2--------4/5\4--4/5\4--------------------------------------|
D|----2----------------------2--------2--------------------------|
A|-4--0--------2/3\2--2/3\2--0-----4--0---------2-2-2-2-2-2------|
E|-2-------------------------------2------------0-0-0-0-0-0------|

[Solo]
e|----------------------------|---------------------------------|
B|----------------------------|------------^--------^-----------|
G|---- trill -----------------|-------2-4-4--------4-4p2^^^^^^^^|
D|--2h4p2h4p2h4p2-(3x'2)-/14/-|---2-4---------------------------|
A|------------------------sl.-|---------------------------------|
E|----------------------------|---------------------------------|
   w/Wah.....                            w/Wah 

                                                      (vibrato)  
e|--------------------------------------------------------------|
B|--------------------------------------------------------------|
G|---------------------------------------------16p14-16---------|
D|------------------------------------14-15-16------------------|
A|------------------12-13-14-14-15-16---------------------------|
E|--14/7--12-13-14----------------------------------------------|
    sl.                       sl.
       
                                                      (vibrato) 
e|-----------------------------------------b--------b-----------|
B|-----------------------------14----14-17^--p14h17^------------|
G|--------------------14-15-16----16----------------------------|
D|-----------14-15-16-------------------------------------------|
A|--14-15-16----------------------------------------------------|
E|--------------------------------------------------------------|

e|-----b--14-17-14----b---14-17-14----b---14-17-14---b----------|
B|--17^-------------17^------------17^-------------17^----------|
G|--------------------------------------------------------------|
D|--------------------------------------------------------------|
A|--------------------------------------------------------------|
E|--------------------------------------------------------------|

e|--14-17-/21\19p14-----b--14-16-14----17-16-14-19-17-14-----b---|
B|--------sl.-sl.----17^------------17--------------------17^----|
G|---------------------------------------------------------------|
D|---------------------------------------------------------------|
A|---------------------------------------------------------------|
E|---------------------------------------------------------------|

                                            A.H.
e|---------------------------------------------------------------|
B|---b-2h5p2--b--2h5p2--b-------------------^^^------------------|
G|-4^--------4^-------4^-------4-4-4-4-4-4p-2--------------------|
D|---------------------------------------------------------------|
A|---------------------------------------------------------------|
E|---------------------------------------------------------------| 

e|-------4h5h7---------7h9h10-------5h7h9----------9h10h12-------|
B|-3h5h7--------7h9h10--------5h7h9--------9h10h12---------------|
G|---------------------------------------------------------------|
D|---------------------------------------------------------------|
A|---------------------------------------------------------------|
E|---------------------------------------------------------------| 

e|----------12h14h15----------12h14h15---------12h14h15-------b--|
B|-12h13h15----------12h13h15----------12h13h15------------17^---|
G|---------------------------------------------------------------|
D|---------------------------------------------------------------|
A|---------------------------------------------------------------|
E|---------------------------------------------------------------|


************************************

| \  Slide down
| /  Slide up
| p  Pull-off
| h  Hammer-on
| b  Bend

************************************
Suggest correction
comments
print report bad tab
15 comments total. Showing first comments.
0 reply
BLS_ZakkWylde 10 Jul 04, 2003 08:00 PM

you are a piece of sh*t, you didn't write that, you stole it:
http://blacklabelsociety.net/tab/bls/tbh/tbh_stillborn.txt

0 reply
hendriksfan 10 Nov 14, 2003 07:00 PM

well, good tab anyway.
but i don't like his band. just his good guitar playing and cause he's with ozzy. randy rhoads is good to, don't forget.

0 reply
zakk258 10 Jan 27, 2004 07:00 PM

you ***ing *** his name is ZAKK WYLDE....but other than that good tab man.

guest
You may want to rate the tab now too:
select rating
Wanna post a correction for this tab? Suggest correction