Oops, an error
Loading. Please wait.

Stillborn Tab

version 2
version 2

Whole song

Interactive

88,887 views 48 this week
18 commentsread comments
1 2 3 4 5
x 25
add to favorites
launch autoscroll
font size
0
reset
how to read this tab
guitar tuner
×
Best way to learn
"Stillborn"
Autoscroll
slow
fast
+/-
esc
set tempo
stop
Author
(Gtr 1) (Eb Ab Db Gb Bb Eb) - 'Zakk Wylde - Rhythm w/dist'
(Gtr 2) (Eb Ab Db Gb Bb Eb) - 'Zakk Wylde - Lead w/dist'

[Intro]
    Q=106
   4/4
    (Gtr 1)
produce random harmonics by moving pick hand along 6th string
    S S S S E S S S S E Q    S S S S E S S S S E Q
e|-------------------------|-----------------------|
B|o------------------------|-----------------------|
G|-------------------------|-----------------------|
D|-------------------------|-----------------------|
A|o------------------------|-----------------------|
E|--2-2-2-2-2-2-2-2-2-2----|-2-2-2-2-2-2-2-2-2-2---|
 |-Riff A                                   Riff A-|

   S S S S E S S S S E Q    S S S S E S S S S E Q
e|------------------------|-------------------------|
B|------------------------|------------------------o|
G|------------------------|-------------------------|
D|------------------------|-------------------------|
A|------------------------|------------------------o|
E|-2-2-2-2-2-2-2-2-2-2----|-2-2-2-2-2-2-2-2-2-2-----|

  S S S S E S S S S E Q    S S S S E S S S S E   Q
e|------------------------|---------------------------|
B|------------------------|---------------------------|
G|------------------------|---------------------------|
D|------------------------|---------------------------|
A|------------------------|---------------------------|
E|-2-2-2-2-2-2-2-2-2-2----|-2-2-2-2-2-2-2-2-2-2-/16\--|
|-Riff A1                                end Riff A1-|

[Pre-Chorus]
   $PM|   PM|   PM--|   PM|   PM
   E E E E E E E E   E E E E E E Q
e|-----------------|----------------|
B|-----------------|----------------|
G|-----------------|----------------|
D|-2-----2-----2---|---2-----2---2--|
A|-2-----2-----2---|---2-----2---2--|
E|-0-0-0-0-0-0-0-0-|-0-0-0-0-0-0-0--|

[Riff A]
                    1.
     PM|   PM|   PM--|   PM|   PM
   E E E E E E E E   E E E E E E Q    S S S S E S S S S E Q
e|-----------------|----------------|-------------------------|
B|-----------------|----------------|-------------------------|
G|-----------------|----------------|-------------------------|
D|-2-----2-----2---|---2-----2---2--|-------------------------|
A|-2-----2-----2---|---2-----2---2--|-------------------------|
E|-0-0-0-0-0-0-0-0-|-0-0-0-0-0-0-0--|-2-2-2-2-2-2-2-2-2-2-----|

   S S S S E S S S S E Q    S S S S E S S S S E Q
e|------------------------|------------------------|
B|------------------------|------------------------|
G|------------------------|------------------------|
D|------------------------|------------------------|
A|------------------------|------------------------|
E|-2-2-2-2-2-2-2-2-2-2----|-2-2-2-2-2-2-2-2-2-2----|

   S S S S E S S S S E   Q
e|----------------------------|
B|---------------------------o|
G|----------------------------|
D|----------------------------|
A|---------------------------o|
E|-2-2-2-2-2-2-2-2-2-2-/16\---|

[Chorus]
   2.,D.S.
   PM  PM|   PM  PM|       PM|       PM|              PM        PM|
   E E E E E E E S S    Q  S S E +E  S S Q    E S S E E S S E E S S
e|-------------------|---------------------|-----------------------|
B|-------------------|--------3-(3)-----5--|-----------------------|
G|-------------------|--------2-(2)-----2--|---4s5s4---4s5s4-2-----|
D|---2-----2---2-----|-4------0-(0)--------|-----------------2-----|
A|---2-----2---2-----|-4------0-(0)--------|---2s3s2---2s3s2-0-----|
E|-0-0-0-0-0-0-0-0-0-|-2--0-0-------0-0----|---------0---------0-0-|
                     |-Rhy Fig 1

     PM|       PM|          PM----------|
  Q  S S E +E  S S Q    +E  E E E E E E E
e|---------------------|-------------------|
B|--------3-(3)-----5--|-(5)---------------|
G|--------2-(2)-----2--|-(2)---------------|
D|-4------0-(0)--------|-------------------|
A|-4------0-(0)--------|-----0-0-0-0-0-0-0-|
E|-2--0-0-------0-0----|-----0-0-0-0-0-0-0-|
                            end Rhy Fig 1-|

[Rhy Fig 1 -> To Coda on D.S.]

[Guitar Solo]
 w/Riff A (x6)
   (Gtr 2)
   W                           +H.                        S  E.
e|---------------------------|--------------------------/20-----|
B|---------------------------|----------------------------------|
G|---------------------------|----------------------------------|
D|---------------------------|----------------------------------|
A|-2tr4----------------------|-(2tr4)-----------------------20\-|
E|---------------------------|----------------------------------|

  |--3--|
  S S   S S S a    +S  +E.     +H
e|---------------------------------------------|
B|---------------------------------------------|
G|---------2h4-4b5==(4)r(4)-----(4)b5==========|
D|---2h==4-------------------------------------|
A|-4-------------------------------------------|
E|---------------------------------------------|

                     ~
   +Q        E +E    Q       Q
e|-------------------------------|
B|-------------------------------|
G|-(4)-------4r(4)---2-----------|
D|-------------------------/19\--|
A|-------------------------/19\--|
E|-------------------------------|

   PM------------------------------|                 ~~~~~
   S  S  S  S  S  S  S  S  S  S  S  S  S  S  a      +E
e|--------------------------------------------------------|
B|--------------------------------------------------------|
G|-------------------------------------16p14-16b18==(16)r-|
D|----------------------------14-16-14--------------------|
A|----------12-14-15-14-16-16-----------------------------|
E|-12-14-14-----------------------------------------------|

   PM-----------------------|
   |---3---|
   S  S    S  S  S  S  S  S  S  S  S  S  a      +S   +S   S  a      +E
e|------------------------------------------------------------------------|
B|---------------------------------14-17-17b19==(17)r(17)p14-17b19==(17)r-|
G|------------------------14-16-16----------------------------------------|
D|---------------14-16-16-------------------------------------------------|
A|-14h15h==16-16----------------------------------------------------------|
E|------------------------------------------------------------------------|

   |---3--|                |--3--|                 |----------6------------|
   S  S   S  a     +E      S  S  S  a     +S    S  S  S   a     +S    S S  S  a     
+T    T  T  T  T     +T   +T   T
e|-14----------------------14-------------------14-------------------14------
B|----17p=14------------------17p14----------------17p14---------------------
G|-----------17b19=(17)r------------17b19=(17)r-----------17b19=(17)r--------
D|---------------------------------------------------------------------------
A|---------------------------------------------------------------------------
E|---------------------------------------------------------------------------

  S  a     +T    T  T  T  T     +T   +T   T
e|-------------------14-------17b18=(17)r(17)p14-|
B|--17p14---------------17p14--------------------|
G|-------17b19=(17)r-----------------------------|
D|-----------------------------------------------|
A|-----------------------------------------------|
E|-----------------------------------------------|

                              ~~~~~~~~~~              ~~~~
                  |-3-|                   |-3-|
  a    +Q         S S S a    +E    +E     S S S a    +Q
e|----------------------------------------------------------|
B|-----------------2h5p2-------------------2h5p2------------|
G|-4b6==(4)r-------------4b6==(4)---(4)r---------4b6==(4)r--|
D|----------------------------------------------------------|
A|----------------------------------------------------------|
E|----------------------------------------------------------|

                                       ~
  |--3--|            |--3--|
  S S   S a    +E    E E   E   E   +E  Q
e|------------------------------------------|
B|-2h5p==2----------------------------------|
G|---------4b6==(4)---4-4---4---4r==(4)-2---|
D|------------------------------------------|
A|------------------------------------------|
E|------------------------------------------|

  |------6------| |-----6-----| |------6------| |------6------|
  S S   S S S   S S S S S S   S S S    S S S  S S  S  S S  S  S
e|---------4h5h==7-------5h7h==9----------7h9h10---------9h10h12-|
B|-3h5h==7---------5h7h9---------7h9h==10--------9h10h12---------|
G|---------------------------------------------------------------|
D|---------------------------------------------------------------|
A|---------------------------------------------------------------|
E|---------------------------------------------------------------|

                                                                  D.S. al Coda
                                                       ~~             ~~~~~
  |---3---|                        |-------5--------|
  S  S    S T  T T  T  T  T  T  T  T  T  T    a  T  T  E   E  a       Q
e|---------------------10h12h14----------10---12h14-------------------14-----
B|------------------------------10-12h14------------14--------17b19==(17)r---
G|-9h11h==12------9h11---------------------------------11---0----------------
D|-----------9h12------------------------------------------------------------
A|---------------------------------------------------------------------------
E|---------------------------------------------------------------------------

    &
    Rhy Fig 1 x1.5
   2.
      PM|       PM|
   Q  S S E +E  S S Q    W           S S S S E S S S S E Q
e|---------------------|-----------|------------------------|
B|--------3-(3)-----5--|-----------|------------------------|
G|--------2-(2)-----2--|-----------|------------------------|
D|-4------0-(0)--------|-----------|------------------------|
A|-4------0-(0)--------|-----------|------------------------|
E|-2--0-0-------0-0----|-x\--------|-2-2-2-2-2-2-2-2-2-2----|


   S S S S E S S S S E Q    S S S S E S S S S E Q    S S S S E S S E E Q
e|------------------------|------------------------|-----------------------*|
B|------------------------|------------------------|-----------------------*|
G|------------------------|------------------------|-----------------------*|
D|------------------------|------------------------|-----------------------*|
A|------------------------|------------------------|-----------------------*|
E|-2-2-2-2-2-2-2-2-2-2----|-2-2-2-2-2-2-2-2-2-2----|-2-2-2-2-2-2-2-2-------*|



************************************

| /    Slide up
| \    Slide down
| PM   Palm mute
| (n)  Ghost note
| tr   Trill
| h    Hammer-on
| b    Bend
| ~    Vibrato
| p    Pull-off
| *    Natural harmonic
  

************************************
Suggest correction
comments
print report bad tab
18 comments total. Showing first comments.
0 reply
abhammer 116 Oct 15, 2007 09:21 PM

i think you just re-writed it from the version 1 and 4

0 reply
twinrecoil 10 Jul 13, 2008 01:20 AM

im guessing the letters above jst say how long the notes go?

0 reply
rockerjesus 10 Jul 20, 2008 07:23 PM

wtf zakk must be talented if he can play 2 guitars at once (i know he doesnt but the way you put it)

good tab :)

guest
You may want to rate the tab now too:
select rating
Wanna post a correction for this tab? Suggest correction