Oops, an error
Loading. Please wait.

Stillborn Acoustic tab

version 6
version 6
59,350 views 6 this week
3 commentsread comments
1 2 3 4 5
x 14
add to favorites
×
Save as Personal and add changes to this tab that will be seen only by you. Learn more ›
×
You can save this tab as Personal to edit and correct it or add notes. All changes will be seen only by you. Learn more »
launch autoscroll
font size
0
reset
how to read this tab
guitar tuner
backing track
0:00
0:00
edit
Autoscroll
slow
fast
+/-
esc
set tempo
stop
Author
Tuning: Standard

e|---5-------5---------5-----4--------4--------4------2---------|
B|-----2--------2---------------2--------2---------------2------|
G|--------2--------2---------------2--------2---------------2---|
D|-4----------------------4------------------------4------------|
A|--------------------------------------------------------------|
E|-2----------------------2------------------------2------------|

e|-2--------2-------2----------------|
B|----2----------------2-------------|
G|-------2----------------2----------|
D|--------------4--------------------|
A|-------------------------------0---|
E|--------------2------------2-4---0-|

[Bridge 1]
(you can figure out the strumming pattern)

e|-0----0--|
B|-0----0--|
G|-1----2--|
D|-2----2--|
A|-2----2--|
E|-0----0--|

The feelings I once felt are now dead and gone-

Repeat the verse section and Bridge then Chorus

e|-2---2---0-------|
B|-2---3---0-------|
G|-2---2---1-------|
D|-4---0---2-------|
A|-4---0---2-------|
E|-2-------0-------|(x3)(just strum in time)

-for so very long----------------------I waited here for you for you. . .

e|--------------------------------------------------------------|
B|-------5--------5--------5------5-------5-------5-----5-------|
G|----------2--------2---------------4-------4------------4-----|
D|----4--------4--------4------6--------6-------6-----7-----7---|
A|--------------------------------------------------------------|
E|--------------------------------------------------------------|

-oh----ohh----------------------(vocalising)

e|-------------------------------|
B|-5------5----5------5-----5----|
G|---4-----------4------4--------| 3 more times (w/vocalising)
D|------7----6------6-----6------|
A|-------------------------------|
E|-------------------------------|

[Solo]

e|-0--0-0-0-0-0--|
B|-0--0-0-0-0-0--|
G|-4--4-4-4-4-4--|  Back to verse (2 bars-8 beats worth grasshopper-)
D|-4--4-4-4-4-4--|
A|-2--3-2-3-2-0--|
E|---------------|

[Chorus]

[Intro/Verse]
(4 bars worth) 

[End]

I take no credit for this work and jsut want to repost it to spread it to more through UG.
Now, to any one who will look at this and be like ive seen this before! you prolly have, 
searched far and wide for a tab of this amazing song, so im just spreading the love 
it may not be great but its a start to anyone who wants to take another crack at it.

            
            
Suggest correction
Creating personal tab
Creating personal tab
You can edit any tab online and save it as your Personal.

You can edit, replace or remove any tab part or add personal notes – all changes will be seen only by you.

Personal tabs can be accessed anytime from any device, even offline.
Learn more »
comments
print report bad tab
3 comments total.
0 reply
guitarsuperman2 31 Dec 20, 2006 06:12 AM

well i guess i'll help u with this song cuz theres no SOLO!!!! lol but it's kool i mean zak is hard to get right. i rate it 4 only cuz it doesnt have the solo.

0 reply
guitarsuperman2 31 Dec 20, 2006 06:12 AM

and who cares where u got it, its spreading to other people that counts

0 reply
guitarNbass 93 Mar 03, 2007 08:13 AM

just improvise the solo. this tabs good

guest
You may want to rate the tab now too:
select rating
Wanna post a correction for this tab? Suggest correction