Oops, an error
Loading. Please wait.

Suicide Messiah tab

version 3
version 3

Whole song

Interactive

38,245 views 36 this week
5 commentsread comments
1 2 3 4 5
x 11
add to favorites
×
Save as Personal and add changes to this tab that will be seen only by you. Learn more ›
×
You can save this tab as Personal to edit and correct it or add notes. All changes will be seen only by you. Learn more »
launch autoscroll
font size
0
reset
how to read this tab
guitar tuner
backing track
0:00
0:00
edit
Autoscroll
slow
fast
+/-
esc
set tempo
stop
Author
Difficulty
Zakk is truly Wylde in this song. 2 guitars by the way
Took a while to tab I hope u like it.
Tuning: Drop C - C G C F A D

[Guitar 1]
e|-------------------|-------------------|------------------|
B|-------------------|-------------------|------------------|
G|-------------------|-------------------|------------------|
D|-------------------|--0----------------|------------------|
A|-------------------|--0----------------|------------------|
E|--3r---------------|--0----------------|------------------|

[Guitar 2]
e|-------------------|--------------------------------------|
B|-------------------|--------------------------------------|
G|-------------------|--------------------------------------|
D|-------------------|--------------------------5-3-0-5-3-0-|
A|-------------------|--3-5-----5-----5-----5---------------|
E|--3----------------|--0-0-0-0-0-0-0-0-0-0-0-0-------------|

[G1]
e|----------|-------------------|-------------------|------------------|
B|----------|-------------------|-------------------|------------------|
G|----------|-------------------|-------------------|------------------|
D|----------|-------------------|--0----------------|------------------|
A|----------|-------------------|--0----------------|------------------|
E|----------|------------3r-----|--0----------------|------------------|

[G2]
e|------------------------------|--------------------------------------|
B|------------------------------|--------------------------------------|
G|------------------------------|--------------------------------------|
D|------------------------------|--------------------------5-3-0-5-3-0-|
A|--3-5-----5-----5-----3----5--|--3-5-----5-----5-----5---------------|
E|--0-0-0-0-0-0-0-0-0-0-3----5--|--0-0-0-0-0-0-0-0-0-0-0-0-------------|

[G1 & G2]
e|--------------|-------------------|----------------------------------|
B|--------------|-------------------|----------------------------------|
G|--------------|-------------------|----------------------------------|
D|--------------|-------------------|----------3---------------3-------|
A|--------------|-------------------|--3h5-----3---------3h5---3-------|
E|--------------|--------3r---------|--0---0-0---0-0-0-0-0---0---0-0-0-|

e|----------------------------------|----------------------------------|
B|----------------------------------|----------------------------------|
G|----------------------------------|----------------------------------|
D|----------3---------------3-------|----------3---------------3-------|
A|--3h5-----3---------3h5---3-------|--3h5-----3---------3h5---3-------|
E|--0---0-0---0-0-0-0-0---0---0-0-0-|--0---0-0---0-0-0-0-0---0---0-0-0-|

e|----------------------------------|-----------------------------------|
B|----------------------------------|-----------------------------------|
G|----------------------------------|-----------------------------------|
D|----------3---------------3-------|-----------3---------------3-------|
A|--3h5-----3---------3h5---3-------|---3h5-----3---------3h5---3-------|
E|--0---0-0---0-0-0-0-0---0---0-0-0-|---0---0-0---0-0-0-0-0---0---0-0-0-|

e|----------------------------------|----------------------------------|
B|----------------------------------|----------------------------------|
G|----------------------------------|----------------------------------|
D|----------3---------------3-------|----------3---------------3-------|
A|--3h5-----3---------3h5---3-------|--3h5-----3---------3h5---3-------|
E|--0---0-0---0-0-0-0-0---0---0-0-0-|--0---0-0---0-0-0-0-0---0---0-0-0-|

e|-----------------------------------||-------------------|-------------------|
B|-----------------------------------||-------------------|-------------------|
G|----------------------------------*||-------------------|-------------------|
D|----------3---------------3-------*||--3----------------|--5----------------|
A|--3h5-----3---------3h5---3--------||--3----------------|--5----------------|
E|--0---0-0---0-0-0-0-0---0---0-0-0--||--3----------------|--5----------------|

e|----------------------------|-----------------------------|-------------------|
B|----------------------------|-----------------------------|-------------------|
G|----------------------------|-----------------------------|-------------------|
D|----------3---------3----5--|----------3---------3----5---|--3----------------|
A|--3-5-----3---------3----5--|--3-5-----3---------3----5---|--3----------------|
E|--0-0-0-0-3---0-0-0-3----5--|--0-0-0-0-3---0-0-0-3----5-0-|--3----------------|(3x)

e|-------------------|--------------------|-----------------------------------|
B|-------------------|--------------------|-----------------------------------|
G|-------------------|--------------------|-----------------------------------|
D|--5----------------|---0----------------|-----------------------------------|
A|--5----------------|---0----------------|--5-5-5-5-5-5-5-5-5-5-5-5-5-5-5-5--|
E|--5----------------|---0----------------|--5-5-5-5-5-5-5-5-5-5-5-5-5-5-5-5--|

e|-------------------|-------------------|----------------------------------|
B|-------------------|-------------------|----------------------------------|
G|-------------------|-------------------|----------------------------------|
D|--3----------------|--5----------------|----------3---------------3-------|
A|--3----------------|--5----------------|--3h5-----3---------3h5---3-------|
E|--3----------------|--5----------------|--0-0-0-0---0-0-0-0-0-0-0---0-0-0-|

e|----------------------------------|----------------------------------|
B|----------------------------------|----------------------------------|
G|----------------------------------|----------------------------------|
D|----------3---------------3-------|----------3---------------3-------|
A|--3h5-----3---------3h5---3-------|--3h5-----3---------3h5---3-------|
E|--0-0-0-0---0-0-0-0-0-0-0---0-0-0-|--0-0-0-0---0-0-0-0-0-0-0---0-0-0-|

e|----------------------------------|-----------------------------------|
B|----------------------------------|-----------------------------------|
G|----------------------------------|-----------------------------------|
D|----------3---------------3-------|-----------3---------------3-------|
A|--3h5-----3---------3h5---3-------|---3h5-----3---------3h5---3-------|
E|--0-0-0-0---0-0-0-0-0-0-0---0-0-0-|---0-0-0-0---0-0-0-0-0-0-0---0-0-0-|

e|----------------------------------|----------------------------------|
B|----------------------------------|----------------------------------|
G|----------------------------------|----------------------------------|
D|----------3---------------3-------|----------3---------------3-------|
A|--3h5-----3---------3h5---3-------|--3h5-----3---------3h5---3-------|
E|--0-0-0-0---0-0-0-0-0-0-0---0-0-0-|--0-0-0-0---0-0-0-0-0-0-0---0-0-0-|(3x)

e|-----------------------------------||------------------------------------|
B|-----------------------------------||------------------------------------|
G|----------------------------------*||*-----------------------------------|
D|----------3---------------3-------*||*----------3---------------3--------|
A|--3h5-----3---------3h5---3--------||---3h5-----3---------3h5---3--------|
E|--0-0-0-0---0-0-0-0-0-0-0---0-0-0--||---0-0-0-0---0-0-0-0-0-0-0---0-0-0--|

e|----------------------------------|-------------------|---------------------|
B|----------------------------------|-------------------|---------------------|
G|----------------------------------|-------------------|---------------------|
D|----------3---------------3-------|--4----------------|--3------------------|
A|--3h5-----3---------3h5---3-------|--2----------------|--1----------19/-----|
E|--0-0-0-0---0-0-0-0-0-0-0---0-0-0-|-------------------|---------------------|

[Solo]
e|--15~----------17-17b-----|
B|----------------------17b-|
G|--------------------------|
D|--------------------------|
A|--------------------------|
E|--------------------------|

e|------------------------------|
B|------17b---17r-15----15~-15/-|
G|-------------------16---------|
D|------------------------------|
A|------------------------------|
E|------------------------------|

e|------10-----------10-----------10-----------10-------|
B|---------13-10-13b----13-10--------13-10-13b----13-10-|
G|--12b-----------------------12b-----------------------|
D|------------------------------------------------------|
A|------------------------------------------------------|
E|------------------------------------------------------|

e|--15-13-10-13-10----13----10-----------------------------------|
B|-----------------13----13----13-10----13----10-----------------|
G|-----------------------------------13----13--------------------|
D|-----------------------------------------------12b-10----10----|
A|------------------------------------------------------12-------|
E|---------------------------------------------------------------|

e|--15~-----------17b-----|------------------------------|
B|--------------------17b-|------17b---17r-15----15---13-|
G|------------------------|-------------------16---------|
D|------------------------|------------------------------|
A|------------------------|------------------------------|
E|------------------------|------------------------------|

e|--------------------------------------------------------------------------------|
B|--10-13-10----10-13-10----10-13/15-18-15----15-18-15----15-10-13-10----10-13-10-|
G|-----------12----------12----------------17----------17-------------12----------|
D|--------------------------------------------------------------------------------|
A|--------------------------------------------------------------------------------|
E|--------------------------------------------------------------------------------|

e|-----------------------------------------------------------------20----20~---|
B|--15-20-15----15-20-15----15-18-15-10-13-10----10h13-10----10-12-------------|
G|-----------17----------17-------------------12----------12-------------------|
D|-----------------------------------------------------------------------------|
A|-----------------------------------------------------------------------------|
E|-----------------------------------------------------------------------------|

e|----------------------------------------------------------------------------------|
B|----------------------------------------------------------------------------------|
G|----------------------------------------------------------------------------------|
D|--15t0h3p0-15t0h3p0-15t0h3p0-15t0h3p0-15t0h3p0-15t0h3p0-15t0h3p0-15t0h3p0-15t0h3--|
A|---------------------------------------------------------------------------------|
E|---------------------------------------------------------------------------------|

e|---------------------------------------------------------------------------------|
B|---------------------------------------------------------------------------------|
G|---------------------------------------------------------------------------------|
D|--17t0h5p0-17t0h5p0-17t0h5p0-17t0h5p0-17t0h5p0-17t0h5p0-17t0h5p0-17t0h5p0-17t0h5-|
A|---------------------------------------------------------------------------------|
E|---------------------------------------------------------------------------------|

e|---------------------------------------------------------------------------------|
B|---------------------------------------------------------------------------------|
G|---------------------------------------------------------------------------------|
D|--20t0h8p0-20t0h8p0-20t0h8p0-20t0h8p0-20t0h8p0-20t0h8p0-20t0h8p0-20t0h8p0-20t0h8-|
A|---------------------------------------------------------------------------------|
E|---------------------------------------------------------------------------------|

e|--15r---15r---15r---15r---|----------20b---------|--------------20b---|
B|--------15r---15r---15r---|--20r-----20b---------|--------------20b---|
G|--------------------------|----------------------|--------------------|
D|--------------------------|----------------------|--------------------|
A|--------------------------|----------------------|--------------------|
E|--------------------------|----------------------|--------------------|

[Rhythm under solo]
e|----------------------------------|----------------------------------|
B|----------------------------------|----------------------------------|
G|----------------------------------|----------------------------------|
D|----------3---------------3-------|----------3---------------3-------|
A|--3h5-----3---------3h5---3-------|--3h5-----3---------3h5---3-------|
E|--0-0-0-0---0-0-0-0-0-0-0---0-0-0-|--0-0-0-0---0-0-0-0-0-0-0---0-0-0-|

e|-------------------|---------------------|----------------------------------|
B|-------------------|---------------------|----------------------------------|
G|-------------------|---------------------|----------------------------------|
D|--4----------------|--3------------------|----------3---------------3-------|
A|--2----------------|--1----------19/-----|--3h5-----3---------3h5---3-------|
E|-------------------|---------------------|--0-0-0-0---0-0-0-0-0-0-0---0-0-0-|

e|----------------------------------|-------------------|-------------------|
B|----------------------------------|-------------------|-------------------|
G|----------------------------------|-------------------|-------------------|
D|----------3---------------3-------|--3----------------|--5----------------|
A|--3h5-----3---------3h5---3-------|--3----------------|--5----------------|
E|--0-0-0-0---0-0-0-0-0-0-0---0-0-0-|--3----------------|--5----------------|

e|-------------------|--------------------------|-------------------|
B|-------------------|--------------------------|-------------------|
G|-------------------|--------------------------|-------------------|
D|--8----------------|--10----10----10----10----|--0----------------|
A|--8----------------|--10----10----10----10----|--0----------------|
E|--8----------------|--10----10----10----10----|--0----------------|

e|----------------------------------|-------------------|
B|----------------------------------|-------------------|
G|----------------------------------|-------------------|
D|----------------------------------|--0----------------|
A|--5-5-5-5-5-5-5-5-5-5-5-5-5-5-5-5-|--0----------------|
E|--5-5-5-5-5-5-5-5-5-5-5-5-5-5-5-5-|--0----------------|

e|----------------------------------|-------------------|
B|----------------------------------|-------------------|
G|----------------------------------|-------------------|
D|----------------------------------|--3----------------|
A|--5-5-5-5-5-5-5-5-5-5-5-5-5-5-5-5-|--3----------------|
E|--5-5-5-5-5-5-5-5-5-5-5-5-5-5-5-5-|--3----------------|

                                        [End interlude]
e|----------------------------------|---|-------------------------------|
B|----------------------------------|---|-------------------------------|
G|----------------------------------|---|-------------------------------|
D|----------------------------------|---|-------------------------------|
A|--5-5-5-5-5-5-5-5-5-5-5-5-5-5-5-5-|---|-----5----5----5----7----7-8-7-|
E|--5-5-5-5-5-5-5-5-5-5-5-5-5-5-5-5-|---|--0-----0----0----0----0-------|

e|-------------------------------|--------------------------------|
B|-------------------------------|--------------------------------|
G|-------------------------------|--------------------------------|
D|-------------------------------|--------------------------------|
A|-----3----3----3----7----7-8-7-|-----5----5----5----7-----7-8-7-|
E|--0-----0----0----0----0-------|--0-----0----0----0---0-0-------|

e|-------------------------------|-------------------------------|
B|-------------------------------|-------------------------------|
G|-------------------------------|-------------------------------|
D|-------------------------------|-------------------------------|
A|-----3----3----3----5----7-8-7-|-----5----5----5----7----7-8-7-|
E|--0-----0----0----0----0-------|--0-----0----0----0----0-------|

e|-------------------------------|--------------------------------|
B|-------------------------------|--------------------------------|
G|-------------------------------|--------------------------------|
D|-------------------------------|--------------------------------|
A|-----3----3----3----7----7-8-7-|-----5----5----5----5-----7-8-7-|
E|--0-----0----0----0----0-------|--0-----0----0----0---0-0-------|

e|-------------------------------|-------------------|-----------------------|
B|-------------------------------|-------------------|-----------------------|
G|-------------------------------|-------------------|-----------------------|
D|-------------------------------|--0----------------|--5--------------------|
A|-----3----3----3----5----7-8-7-|--0----------------|--3------------0-0-0-0-|
E|--0-----0----0----0----0-------|--0----------------|---------------0-0-0-0-|

e|-------------------|-----------------------|-------------------|
B|-------------------|-----------------------|-------------------|
G|-------------------|-----------------------|-------------------|
D|--0----------------|--5--------------------|--0----------------|
A|--0----------------|--3------------0-0-0-0-|--0----------------|
E|--0----------------|---------------0-0-0-0-|--0----------------|

e|-----------------------|-------------------|-----------------------|
B|-----------------------|-------------------|-----------------------|
G|-----------------------|-------------------|-----------------------|
D|--5--------------------|--0----------------|--5--------------------|
A|--3------------0-0-0-0-|--0----------------|--3------------0-0-0-0-|
E|---------------0-0-0-0-|--0----------------|---------------0-0-0-0-|

e|-------------------|-----------------------|-------------------|
B|-------------------|-----------------------|-------------------|
G|-------------------|-----------------------|-------------------|
D|--0----------------|--5--------------------|--0----------------|
A|--0----------------|--3------------0-0-0-0-|--0----------------|
E|--0----------------|---------------0-0-0-0-|--0----------------|

e|-----------------------|-------------------|-----------------------|
B|-----------------------|-------------------|-----------------------|
G|-----------------------|-------------------|-----------------------|
D|--5--------------------|--0----------------|--5--------------------|
A|--3------------0-0-0-0-|--0----------------|--3------------0-0-0-0-|
E|---------------0-0-0-0-|--0----------------|---------------0-0-0-0-|

e|-------------------|------------------|
B|-------------------|------------------|
G|-------------------|------------------|
D|--0----------------|------------------|
A|--0----------------|------------------|
E|--0----------------|------------------|

************************************

| r  Release
| h  Hammer-on
| *  Natural harmonic
| /  Slide up
| b  Bend
| ~  Vibrato
| p  Pull-off
| t  Tapping

************************************
Suggest correction
Creating personal tab
Creating personal tab
You can edit any tab online and save it as your Personal.

You can edit, replace or remove any tab part or add personal notes – all changes will be seen only by you.

Personal tabs can be accessed anytime from any device, even offline.
Learn more »
comments
print report bad tab
5 comments total. Showing first comments.
0 reply
SomeKindOfKirk 55 Jun 08, 2006 05:11 AM

Good Tab Only You Missed The Outro Solo But Still Good Job

0 reply
Greenday #1 10 Aug 16, 2006 11:45 PM

good job mate and what a ****in sick song!!

0 reply
ElectricMammal 30 Jun 30, 2007 09:04 PM

dude is the solo tuned to standard

guest
You may want to rate the tab now too:
select rating
Wanna post a correction for this tab? Suggest correction