Oops, an error
Loading. Please wait.

We Live No More Tab

version 1
version 1

Whole song

Interactive

7,459 views 3 this week
no commentswrite comment
1 2 3 4 5
x 3
add to favorites
launch autoscroll
font size
0
reset
how to read this tab
guitar tuner
Autoscroll
slow
fast
+/-
esc
set tempo
stop
Help us to improve Ultimate-Guitar.com Take our survey!
×
Author
Difficulty
intermediate
Tuning: A=430hz

|----------------------------------------------------------------|
|----------------------------------------------------------------|
|----------------------------------------------------------------|
|------------------DRUM INTRO------------------------------------|
|----------------------------------------------------------------|
|----------------------------------------------------------------|


Vers/Main Riff
Eb|--------------------------------------------------------------|
Bb|--------------------------------------------------------------|
Gb|-4-4-4-4/--6-6-6-6--------------------------------------------|
Db|-4-4-4-4/--6-6-6-6--4-4-4-4-----6-6-6\------------------------|
Ab|-2-2-2-2/--4-4-4-4--4-4-4-4-----6-6-6\------------------------|
Eb|--------------------2-2-2-2/----4-4-4\------------------------|


Eb|--------------------------------------------------------------|
Bb|--------------------------------------------------------------|
Gb|-4-4-4-4/--6-6-6-6--------------------------8--7--------------|
Db|-4-4-4-4/--6-6-6-6--4-4-4-4/----6-6-6\------8--7--------------|
Ab|-2-2-2-2/--4-4-4-4--4-4-4-4/----6-6-6\------6--5--------------|
Eb|--------------------2-2-2-2/----4-4-4\------------------------|
							  Repeat
Guitar 2 On Intro
Eb|---------------------|
Bb|---------------------|
Gb|-18--16~-------------|
Db|-----------18--16~---|
Ab|---------------------|
Eb|---------------------|



Chorus
Eb|----------------------------------------|
Bb|----------------------------------------|
Gb|-4--4/6\4-------------------------------|
Db|-4--4/6\4--4--4/6\4---------------------|
Ab|-2--2/4\2--4--4/6\4---------------------|
Eb|-----------2--2/4\2---------------------|
      AHHHAHH   AHHHAHH choose what you...        

Eb|---------------------------------------------------|
Bb|---------------------------------------------------|
Gb|----4--4/6\4----------------4--4/6\4--4-4-4-4--6\--|
Db|----4--4/6\4--4--4/6\4------4--4/6\4--4-4-4-4--6\--|
Ab|----2--2/4\2--4--4/6\4------2--2/4\2--2-2-2-2--4\--|
Eb|0-0-----------2--2/4\2-----------------------------|
        AHHHAHH AHHHAHH choose...


|picking|							(vib)
|-------------------------------------------------------------------|
|-19---------19--------------------19---------19b-19b-19b-19b-19b---|
|-18b-----------18bh16--16-18-16---18b--18-16-----------------------|
|---------------------18--------------------------------------------|
|-------------------------------------------------------------------|
|-------------------------------------------------------------------|


	(staccato)
|-------------------------------------------------------|
|-4h7p4-7b--(repeat)--(some notes)----------------------|
|----------------------------------4h6bt11--------------|
|-------------------------------------------------------|
|-------------------------------------------------------|
|-------------------------------------------------------|



|-------------------|-------------------|-------------3-6-3------|
|-------------------|-------------3-6-3-|-3-5-6-3-5-6------------|
|-------------3-5-3-|-3-4-5-3-4-5-------|------------------------|
|-3-4-5-3-4-5-------|-------------------|------------------------|
|-------------------|-------------------|------------------------|
|-------------------|-------------------|------------------------|



|-16h19p16-----------------------------------------------------|
|----------19b-(repeat)--19b-19-16-----------------------------|
|----------------------------------18b-18-16-------------------|
|--------------------------------------------18-16-16h18-------|
|--------------------------------------------------------------|
|--------------------------------------------------------------|






End song with
Eb|---------------------|
Bb|---------------------|
Gb|---------------------|
Db|---------------------|
Ab|-4-2---2-------------|
Eb|-----4---4-3-2--4~\--|
Suggest correction
Give kudos to tab author, rate the tab!
1 2 3 4 5
comments
print report bad tab
guest
You may want to rate the tab now too:
select rating
Wanna post a correction for this tab? Suggest correction