Oops, an error
Loading. Please wait.

Coward Tab

version 2
version 2

Whole song

Interactive

1,325 views 1 this week
no commentswrite comment
1 2 3 4 5
please rate
add to favorites
launch autoscroll
font size
0
reset
how to read this tab
guitar tuner
Autoscroll
slow
fast
+/-
esc
set tempo
stop
Help us to improve Ultimate-Guitar.com Take our survey!
×
Author
superduck 119
-------------------------------------------------------------------------------
                             COWARD - Black Light Burns
-------------------------------------------------------------------------------
Tabbed by: Superduck
Email: Superduck90210@comcast.net

Tuning: Wes Borland Standard (3 frets down) and THEN dropped D on it. So i think what I have
listed is correct.

Intro

c#|-------------------------------------------|
G#|-------------------------------------------|
E |------9-----------9-------9----------------|
b |0-2-2-9-0-2-5-2-2-9-2-5-2-9-0-2-0-0-3------|
F#|0-2-2-7-0-2-5-2-2-7-2-5-2-7-0-2-0-0-3------|
B |0-2-2---0-2-5-2-2---2-5-2---0-2-0-0-3------|

Verse

c#|----------------------------|
G#|----------------------------|
E |--9-----12----7-------------|
b |-9-9--12--12-7-7-7----------|
F#|7---10------5---5-7-9-5-5-7-|
B |----------------------------|

Pre Chorus

c#|---------------------------|
G#|---------------------------|
E |-9-------------------------|
b |-9-------------------------|
F#|-7-------------------------|
B |---------------------------|

Chorus

c#|---------------------------|
G#|---------------------------|
E |-9-12-7--------------------|
b |-9-12-7--------------------|
F#|-7-10-5--------------------|
B |---------------------------|


Solo


c#|-------------------------------------------------------------------------------------------------|
G#|--9-10-12-12-12-13-12-10-12-10--------------10---------------------------------------10-11-12-12-|
E |------------------------------12-11-11-11-12--9-9-9-7--7-----------------------11----------------|
b |------------------------------------------------------9----9-9-9-9-10-9-7-9----------------------|
F#|---------------------------------------------------------11----------------10-9--9--9--9--9------|
B |-------------------------------------------------------------------------------------------------|

Solo 2:


c#|---------------------------|
G#|12--12-9-12-10-------------|
E |--12-----------9-9-9-7-7-9-|
b |----------------------9----| x3 then
F#|---------------------------|
B |---------------------------|

c#|12-10-----12-10------------|
G#|-----12-12-----12-12-------|
E |---------------------------|
b |---------------------------|
F#|---------------------------|
B |---------------------------|

Bridge (palm muted)

c#|---------------------------|
G#|---------------------------|
E |----------7----------------|
b |2-5-0-2-5-7----------------|
F#|2-5-0-2-5-5----------------|
B |2-5-0-2-5------------------|
Suggest correction new What's this?
You can suggest a correction to this tab. Community and Mods will review your correction and vote to approve or reject it.
comments
We did not receive enough feedback on this tab! Please rate:
print report bad tab
1 2 3 4 5
guest
You may want to rate the tab now too:
select rating
Please do not post tabs as comments. Select "correction" instead!