Oops, an error
Loading. Please wait.

Cruel Melody Tab

version 1
version 1

Whole song

2,701 views 3 this week
no commentswrite comment
1 2 3 4 5
please rate
add to favorites
launch autoscroll
font size
0
reset
how to read this tab
guitar tuner
Autoscroll
slow
fast
+/-
esc
set tempo
stop
Help us to improve Ultimate-Guitar.com Take our survey!
×
Author
Tuning
D A D G B E
 "Cruel Melody" by Black Light Burns,
 from "Cruel Melody"

 tabbed by MafiaMaster (bourrindercii@gmail.com)


tuning : Drop D

Clean with Delay

Intro
     
E||--------------------------|---------------------------|
B||--------------------------|---------------------------|
G||--------------------------|-------------------5--7-5--|
D||-----7-----7-----7-----7--|------7---------7----------|
A||--------------------------|---------------------------|
D||--0-----0-----0-----0-----|--0------0-0-3-------------|

Verse

---------------------------|---------------------------|
---------------------------|---------------------------|
-------------------5--7-5--|-------------------5--7-5--|
------7---------7----------|------7---------7----------|
---------------------------|---------------------------|
--0------0-0-3-------------|--0------0-0-3-------------|
Suggest correction
Give kudos to tab author, rate the tab!
1 2 3 4 5
comments
print report bad tab
guest
You may want to rate the tab now too:
select rating
Wanna post a correction for this tab? Suggest correction