Oops, an error
Loading. Please wait.

Cruel Melody Tab

version 2
version 2

Whole song

3,448 views 9 this week
1 commentread comment
1 2 3 4 5
x 3
add to favorites
launch autoscroll
font size
0
reset
how to read this tab
guitar tuner
Autoscroll
slow
fast
+/-
esc
set tempo
stop
Help us to improve Ultimate-Guitar.com Take our survey!
×
Author
Tuning
D A D G B E
-------------------------------------------------------------------------------
                        CRUEL MELODY - Black Light Burns
-------------------------------------------------------------------------------
Tabbed by: Superduck
Email: Superduck90210@comcast.net

Tuning: Drop D


Verse and Intro
e|---------------------------|---------------------------|
B|---------------------------|---------------------------|
G|-------------------5--7-5--|-------------------5--7-5--|
D|-------7---------7---------|-------7---------7---------|
A|---------------------------|---------------------------|
D|--0-0-----0-0-3------------|--0-0-----0-0-3------------|

Chorus Chords  (Listen to get rhythm, as many times as necessary)


e|1---2----------------------------------------------------------------------|
B|1-1-3----------------------------------------------------------------------|
G|2-2-2----------------------------------------------------------------------|
D|3-2-0-6-5------------------------------------------------------------------|
A|3-----6-5------------------------------------------------------------------|
D|------6-5------------------------------------------------------------------|

Bridge Chords (Listen to get rhythm, as many times as necessary)


e|2--------------------------------------------------------------------------|
B|3-3-10-13------------------------------------------------------------------|
G|2-3-10-13------------------------------------------------------------------|
D|0-3-10-13------------------------------------------------------------------|
A|--1-8--11------------------------------------------------------------------|
D|---------------------------------------------------------------------------|

Halfway through the bridge I think another guitar part comes in. Keep in mind,
this is just the lower chords on the ones being played on the first guitar.

e|---------------------------------------------------------------------------|
B|---------------------------------------------------------------------------|
G|7-3------------------------------------------------------------------------|
D|7-3-3-6--------------------------------------------------------------------|
A|5-1-3-6--------------------------------------------------------------------|
D|----3-6--------------------------------------------------------------------|

Solo-ish (as many times as necessary)
e|---------------------------------------------------------------------------|
B|-15------------------------------------------------------------------------|
G|---15-14--13---------------------------------------------------------------|
D|--------15-----------------------------------------------------------------|
A|---------------------------------------------------------------------------|
D|---------------------------------------------------------------------------|

Outro


e|---------------------------------------------------------------------------|
B|---------------------------------------------------------------------------|
G|---13-13-12-10-9-7-13-13-12-10---------------------------------------------|
D|12-------------------------------------------------------------------------|
A|---------------------------------------------------------------------------|
D|---------------------------------------------------------------------------|
Suggest correction
Give kudos to tab author, rate the tab!
1 2 3 4 5
comments
print report bad tab
1 comment total.
0 reply
jamstation 62 Sep 06, 2007 09:42 AM

yeah not a bad effort

guest
You may want to rate the tab now too:
select rating
Wanna post a correction for this tab? Suggest correction