Oops, an error
Loading. Please wait.

I Am Where It Takes Me Tab

1,519 views 3 this week
no commentswrite comment
1 2 3 4 5
2 more votes to show rating
add to favorites
launch autoscroll
font size
0
reset
how to read this tab
guitar tuner
Autoscroll
slow
fast
+/-
esc
set tempo
stop
Help us to improve Ultimate-Guitar.com Take our survey!
×
Author
Difficulty
advanced
-------------------------------------------------------------------------------
               I Am Where It Takes Me - Black Light Burns
-------------------------------------------------------------------------------
Tabbed by: Stephen McFall
Email: smboo28@aim.com

Tuning: All parts tabbed for 6 string guitar in C# Standard low to high (C#,F#,B,E,G#,C#)

This is a beautiful song in my opinion one of the best on the CD. There’s only 1 guitar
but there are other string riffs. I’ll tab what I can.
This part is actually Plucked Cello but I have it tabbed for guitar if you actually own
cello you can figure it out from the notes here. This part is played many times
the song you’ll have to figure out when
The Parentheses denote an Echo that was put on the cello just for those 2 notes that echo
C#|---------------------------------------------------------------------------|
G#|---------4-(4)-(4)-(4)-(4)-------------------------------------------------|
 E|-5-5-5-5--5-(5)-(5)-(5)-(5)------------------------------------------------|
 B|---------------------------66-55-5-6-8-6-5-3-1-----------------------------|
F#|---------------------------------------------------------------------------|
C#|---------------------------------------------------------------------------|

This is the only guitar riff its clean guitar with a slight echo
C#|---------------------------------------------------------------------------|
G#|-13-13-13-13-13-16p13-13-11-13-9--11-13p11-11-9-8-8-9-11p9-9p8-8-6-4-6-----|
 E|---------------------------------------------------------------------------|
 B|---------------------------------------------------------------------------|
F#|---------------------------------------------------------------------------|
C#|---------------------------------------------------------------------------|

This is a cello riff played in the chorus of the song this is Bowed cello
C#|---------------------------------------------------------------------------|
G#|---------------------------------------------------------------------------|
 E|---------------------------------------------------------------------------|
 B|-3/10~-13~-5~-6~/10~-13~-5~6~/10~~-13~/15~~-6~/10~-13~-5~~-6~-9~~~---------|
F#|---------------------------------------------------------------------------|
C#|---------------------------------------------------------------------------|

This is a extremely faint violin riff it is entirely tremolo (bowing as fast as you can)
very quiet. There are 2 violin parts at once. This is played during the end of the
and the verses and the outro. Violins are silent during Choruses. Btw these parts match 
with each other
Pt. 1 Violins 1 & 2
C#|-18\13-16-23-22-13-16-23-22------------------------------------------------|
G#|---------------------------------------------------------------------------|
 E|---------------------------------------------------------------------------|
 B|---------------------------------------------------------------------------|
F#|---------------------------------------------------------------------------|
C#|---------------------------------------------------------------------------|

Pt. 2 Violins 3, 4, & 5
C#|----13-16-23-18-13-16-23-18------------------------------------------------|
G#|---------------------------------------------------------------------------|
 E|---------------------------------------------------------------------------|
 B|---------------------------------------------------------------------------|
F#|---------------------------------------------------------------------------|
C#|---------------------------------------------------------------------------|

This is a bell part during the last chorus tabbed for guitar

C#|-17-19-19-19-19-22-22-26-26-26-26------------------------------------------|
G#|----------------------------------12-12-12-12-12---------------------------|
 E|-8--10-10-10-10-13-13-16-16-16-16-14-14-14-14-14---------------------------|
 B|---------------------------------------------------------------------------|
F#|---------------------------------------------------------------------------|
C#|---------------------------------------------------------------------------|

The End

If you find any errors or any other parts
Email me at smboo28@aim.com

| /  slide up
| \  slide down
| h  hammer-on
| p  pull-off
| ~  vibrato
| +  harmonic
| x  Mute note
===============================================================================
Suggest correction
Give kudos to tab author, rate the tab!
1 2 3 4 5
comments
print report bad tab
guest
You may want to rate the tab now too:
select rating
Wanna post a correction for this tab? Suggest correction