Oops, an error
Loading. Please wait.

I Have A Need Bass Tab

version 1
version 1

Whole song

Interactive

475 views 1 this week
2 commentsread comments
1 2 3 4 5
please rate
add to favorites
launch autoscroll
font size
0
reset
guitar tuner
Autoscroll
slow
fast
+/-
esc
set tempo
stop
Help us to improve Ultimate-Guitar.com Take our survey!
×
Difficulty
intermediate
Black Light Burns-I Have A Need
Album-Cruel Melody
Bass Player-Sam Rivers
Tab by-tommy20495

verse
G|--------------------------|
D|----6-5--------6-5--------|
A|-4-4----4-4-3-3---4-4-6-5-|
E|--------------------------|

G|-------5-4--------5-4--------|
D|----4-4----4-4-3-3---4-4-5-4-|
A|-----------------------------|
E|-----------------------------|

rit.
G|--------------|
D|---2-44-4331--|
A|44------------|
E|--------------| x3

G|------------------|
D|77-99-101010101111| ("10s" & "11s")
A|------------------|
E|------------------|

During the guitar solo(with effects)

G|-----------------------|
D|11-11------------------|("11s")
A|-----------------------|
E|-----121212/1414141515-|("12s","14s" & "15s")

This is my first tab so email me @ tommy_KoRn@hotmail.it if there's something wrong.
Have fun!
Suggest correction
Give kudos to tab author, rate the tab!
1 2 3 4 5
comments
print report bad tab
2 comments total.
0 reply
xmari3nx 31 wrote on August 8 2008, 12:29 pm

this is way off man

0 reply
SMBoo28 499 wrote on August 20 2008, 08:41 pm

just so you know this song was recorded on a 6-string bass performed by Sam Rivers of Limp Bizkit
however when BLB plays live its performed on a 4-string bass tuned low to High to C#-F#-B-E

so that would definetely help

guest
You may want to rate the tab now too:
select rating
Wanna post a correction for this tab? Suggest correction