Oops, an error
Loading. Please wait.

I Have A Need Tab

version 1
version 1

Solo

Whole song

Interactive

1,064 views 1 this week
no commentswrite comment
1 2 3 4 5
please rate
add to favorites
launch autoscroll
font size
0
reset
how to read this tab
guitar tuner
Autoscroll
slow
fast
+/-
esc
set tempo
stop
Help us to improve Ultimate-Guitar.com Take our survey!
×
Contributor
bmatrix 39
I Have A Need solo
by bmatrix
standard tuning

E||----------------------------------------------------|
B||--9--9--9--9--9------------------9--9--9b--10----10-|
G||-----------------6----9--11--11---------------------|
D||----------------------------------------------------|
A||----------------------------------------------------|
E||----------------------------------------------------|


-------------------------------------------------------------|
--9--9--9--9--9----------------------------------------------|
-----------------6----9--9--9---9--9--6--6--6--6--4--6--6--6-|
-------------------------------------------------------------|
-------------------------------------------------------------|
-------------------------------------------------------------|

repeat first motive


-----------------------------------------------------|
--9--9--9--9--9--------------------------------------|
-----------------6--6/4--4/3--3/0--------------------|
-----------------------------------4--4--4--6--7--6--|
-----------------------------------------------------|
-----------------------------------------------------|


---------------------------------------------------------------|
--9--9--------------------9--9--9------------------9--9--9-----|
--------6----9--11--11-------------6--9--11--11-------------6--|
---------------------------------------------------------------|
---------------------------------------------------------------|
---------------------------------------------------------------|


----------------------------------------------------------------|
--12-------12--12----14-----------------------------------------|
------9------------------11----11--11--11--9--9--4--4--4--6--6--|
----------------------------------------------------------------|
----------------------------------------------------------------|
----------------------------------------------------------------|


---------------------------------------------------------------|
--9--9--------------------9--9--9------------------9--9--9-----|
--------6----9--11--11-------------6--9--11--11-------------6--|
---------------------------------------------------------------|
---------------------------------------------------------------|
---------------------------------------------------------------|


----------------------------------------------------------------|
--12-------12--12----14-----------------------------------------|
------9------------------11----11--11--11--9--9--4--4--4--6--6--|
----------------------------------------------------------------|
----------------------------------------------------------------|
----------------------------------------------------------------|
Suggest correction new What's this?
You can suggest a correction to this tab. Community and Mods will review your correction and vote to approve or reject it.
comments
We did not receive enough feedback on this tab! Please rate:
print report bad tab
1 2 3 4 5
I want to post or [tab]
guest
You may want to rate the tab now too:
select rating
Please do not post tabs as comments. Select "correction" instead!