Oops, an error
Loading. Please wait.

I Have A Need Tab

version 1
version 1

Whole song

Interactive

1,021 views 3 this week
no commentswrite comment
1 2 3 4 5
please rate
add to favorites
launch autoscroll
font size
0
reset
how to read this tab
guitar tuner
Autoscroll
slow
fast
+/-
esc
set tempo
stop
Help us to improve Ultimate-Guitar.com Take our survey!
×
Contributor
 "I Have A Need" by Black Light Burns,
 from "Cruel Melody"

 tabbed by MafiaMaster (bourrindercii@gmail.com)


tuning : low to high: C# F# B E G# C# (standard Wes Borland)


Intro x2

----------------------------------------------------------------------|
------12--12--12-13--13--13-10-12-12\8--8--8-10--10-10-10-8-8-8-7-7-7-|
-\\10-----------------------------------------------------------------|
----------------------------------------------------------------------|
----------------------------------------------------------------------|
----------------------------------------------------------------------|


---------------------------------------------------------------|
-7--7-5--5--5-7--7--7-8-8-8\3--5--5--5-1--1--1-3-3-3-1-1-0-0---|
---------------------------------------------------------------|
---------------------------------------------------------------|
---------------------------------------------------------------|
---------------------------------------------------------------|

Verse

Gtr 1
------------------------------------------------|
------------------------------------------------|
-5-5-x-5-5--7-7-x-7-7-7-------------------------|
-5-5-x-5-5--7-7-x-7-7-7--xx7-7--7-5--5-5-4--4-4-| repeat as necessary
-3-3-x-3-3--5-5-x-5-5-5--xx7-7--7-5--5-5-4--4-4-|
-------------------------xx5-5--5-3--3-3-2--2-2-|

Gtr 2
----------------------------------------------------------------|
----------------------------------------------------------------|
-16-16-16-14-16-16-16-12-14-14-14-11-11-11-12-11-12-11-12-11-9--|
----------------------------------------------------------------|
----------------------------------------------------------------|
----------------------------------------------------------------|

Chorus

Gtr 1
---------------------|
---------------------|
---------------------|
-5--------7--------9-| x3 then
-5-repeat-7-repeat-9-|
-3--------5--------7-|

-------------------------------------------------|
-------------------------------------------------|
-------------------------------------------------|
-5--------7--------9--------12--------14---------|
-5-repeat-7-repeat-9-repeat-12-repeat-14-repeat--|
-3--------5--------7--------10--------12---------|
                                     |-----------|
                                      fist time only

Gtr 2

-------------------------------------------------|
-------------------------------------------------|
--9~~---9~~---9~~---9~~---9~~---9~~---9~~---9~~--|
-------------------------------------------------|
-------------------------------------------------|
-------------------------------------------------|
Suggest correction new What's this?
You can suggest a correction to this tab. Community and Mods will review your correction and vote to approve or reject it.
comments
We did not receive enough feedback on this tab! Please rate:
print report bad tab
1 2 3 4 5
guest
You may want to rate the tab now too:
select rating
Please do not post tabs as comments. Select "correction" instead!