Oops, an error
Loading. Please wait.

I Have A Need Bass Tab

version 2
version 2

Whole song

Interactive

883 views 1 this week
no commentswrite comment
1 2 3 4 5
2 more votes to show rating
add to favorites
launch autoscroll
font size
0
reset
guitar tuner
Autoscroll
slow
fast
+/-
esc
set tempo
stop
Help us to improve Ultimate-Guitar.com Take our survey!
×
Author
Difficulty
intermediate
-------------------------------------------------------------------------------
I have a need - black light burns
-------------------------------------------------------------------------------

Tabbed By :xmarienx 
e-mail:beardman44@hotmail.com 

Tuning:standard

intro

G|-----------------------------------|
D|-----------------------------------|
A|-4-4---7-7---0-0---2-2---------3-3-|
E|-------------------------3-3-------|x8

then at 1:05

G|-----------------------------------|
D|-----------------------------------|
A|-4-4---7-7---0-0---2-2---------3-3-|
E|-------------------------3-3-------|x8

then

G|-------------------|        ]
D|-------------------|        ]
A|-------7--9-9-10-9-|        ]
E|-9-9---------------|x2      ]
                              ]
G|-----------------|          ] 
D|-----------------|          ]
A|-------7--9-9-10-|          ]
E|-9-9-------------|          ] 
                              ]
G|--------------------------| ]
D|--------------------------| ]
A|-12-12-12-12--14-14-14----| ]
E|------------------------9-| ] repeat x2

G|-----------------------------------------|     ]           ]
D|-----------------------------------------|-------------------|then 
A|-----------------------------------------|     ] repeat    ] |play 
E|-9-8-6-5-4-5-3-3s5-4-4-2h3-4-5-5s3-3-0-0-|     ] after-|   ] |these
                                                         |   ] |two 
G|---------------------------------------------|   ]     |   ] |on the
D|---------------------------------------------|---------|   ] |second
A|--------------------------7------------------|   ]         ] |time
E|-9-8-6-5-6-7-7-7s5-4s5-6-----5-5-9s8-6s8-5s6-|   ]         ] |
                                                             ] |
G|---------------------------------------------------------| ] |
D|---------------------------------------------------------|---|
A|---------------------------------------------------------| ]
E|-9-8-6-5-4-5-3-3s5-4-4-2h3-4-5-5-3-7-5s9-4-4-5-5-4-4-2-2-| ]

G|---------------------------------------------------|
D|---------------------------------------------------|
A|---------------------------------------------------|
E|-9-9-5-5-4-4-3h4-5-5-5-4-2h3-3s7-6-6-9-9-5-4-4-3-3-|x2

G|------------------|         ]
D|------------------|         ]
A|------7--9-9-10-9-|         ]
E|-9-9--------------|x2       ]
                              ]
G|----------------|           ]
D|----------------|           ]
A|------7--9-9-10-|           ]
E|-9-9------------|           ]
                              ]
G|--------------------------| ]
D|--------------------------| ]
A|-12-12-12-12--14-14-14----| ]
E|------------------------9-| ] repeat x2

G|-----------------------|   ]
D|-------------4-4---5-5-|   ]
A|-4-4---7-7-------------|   ]
E|-----------------------|x3 ]
                             ]
G|--------------------|      ]
D|--------------------|      ]
A|-88888888--77777777-|      ]
E|--------------------|      ] repeat x2
Suggest correction
Give kudos to tab author, rate the tab!
1 2 3 4 5
comments
print report bad tab
guest
You may want to rate the tab now too:
select rating
Wanna post a correction for this tab? Suggest correction