Oops, an error
Loading. Please wait.

I Have A Need Tab

version 2
version 2

Whole song

Interactive

3,183 views 1 this week
11 commentsread comments
1 2 3 4 5
please rate
add to favorites
launch autoscroll
font size
0
reset
how to read this tab
guitar tuner
Tab Pro tools
  • play this tab
  • loop segment
  • change instrument
  • show fretboard
  • metronome
×
Best way to learn
"I Have A Need"
Autoscroll
slow
fast
+/-
esc
set tempo
stop
Contributor
Difficulty
novice
-------------------------------------------------------------------------------
                    I Have A Need - Black Light Burns
-------------------------------------------------------------------------------
Tabbed by: Stephen McFall
Email: smboo28@aim.com

Tuning: Gtr. 1, 2, and 3 C# Standard (C#,F#,B,E,G#,C#)

Intro/Verse Gtr. 1 (Clean + Tape Delay) play 4x for Intro 4x for Verse
C#|---------------------------------------------------------------------------|
G#|---------------------------------------------------------------------------|
 E|---------------------------------------------------------------------------|
 B|-2-2--2-5------------1-----------------------------------------------------|
F#|----------3--5--5-0--------------------------------------------------------|
C#|---------------------------------------------------------------------------|
PM  * *  * * *  *  * *  *

Chorus Gtr. 1 (Clean) Play 2x for First Chorus
C#|-----0---0---0---0---------------------------------------------------------|
G#|---------------------------------------------------------------------------|
 E|---------------------------------------------------------------------------|
 B|---2-----------------------------------------------------------------------|
F#|---------------------------------------------------------------------------|
C#|-0-----3---5---6-----------------------------------------------------------|
Then
C#|-----0---0---0---0---------------------------------------------------------|
G#|-----------------0---------------------------------------------------------|
 E|-----------------0---------------------------------------------------------|
 B|---2-----------------------------------------------------------------------|
F#|---------------------------------------------------------------------------|
C#|-0-----3---5---6-----------------------------------------------------------|
Then
C#|---0--0----0----0---------------------------------------------------------|
G#|-------0--------0---------------------------------------------------------|
 E|----------------0---------------------------------------------------------|
 B|--------------------------------------------------------------------------|
F#|--------------------------------------------------------------------------|
C#|-8--8---10---10-----------------------------------------------------------|


Gtr. 1 play Intro Riff 4x for Guitar Break

Guitar Break Gtr. 2 (Distortion + Tape Delay + Reverb)
C#|-----------------------------------------------------------------|}
G#|-12--12-12--13-13-13-10-10-12-12\8-8-8-8-10-10-8-8\7-7-----------|}
 E|-----------------------------------------------------------------|}
 B|-----------------------------------------------------------------|}
F#|-----------------------------------------------------------------|}
C#|-----------------------------------------------------------------|}
                                                                     }play 2x
C#|-----------------------------------------------------------------|}
G#|-7\5-5-5-5-7-7-8-3-3-5-5\1-1-1-1-3-3-1-1\0-0---------------------|}
 E|-----------------------------------------------------------------|}
 B|-----------------------------------------------------------------|}
F#|-----------------------------------------------------------------|}
C#|-----------------------------------------------------------------|}

Guitar Break Gtr. 3 (Distortion)
C#|---------------------------------------------------------------------------|
G#|---------------------------------------------------------------------------|
 E|-9~~~--9~~~----------------------------------------------------------------|
 B|-9~~~--9~~~----------------------------------------------------------------|
F#|-7~~~--7~~~----------------------------------------------------------------|
C#|---------------------------------------------------------------------------|

Verse 2 Gtr. 1 (Distortion) play 4x
C#|---------------------------------------------------------------------------|
G#|-12-12-12~-12-12--15-15-15-15-15\8~-8~/10-10-10~-10-10-10-10-10-11-11------|
 E|-x--x--x---x--x---x--x--x--x--x--x--x--x--x--x---x--x--x--x--x--x--x-------|
 B|-9--9--9~~-9--9---12-12-12-12-12\5~-5~-7--7--7~~-7--7--7--7--7--8--8-------|
F#|---------------------------------------------------------------------------|
C#|---------------------------------------------------------------------------|

Verse 2 Gtr. 2 (Distortion + Delay + Reverb)
C#|-15--15--------------------------------------------------------------------|
G#|---12--12-10-12-10-8-7--7-7-8--10-7-7-7-8-10-12----------------------------|
 E|---------------------------------------------------------------------------|
 B|---------------------------------------------------------------------------|
F#|---------------------------------------------------------------------------|
C#|---------------------------------------------------------------------------|

C#|-15--15-------------------------15--15--15---------------------------------|
G#|---12--12-10-12-10-8-7--7-7-8-10--12--12-----------------------------------|
 E|---------------------------------------------------------------------------|
 B|---------------------------------------------------------------------------|
F#|---------------------------------------------------------------------------|
C#|---------------------------------------------------------------------------|

Verse 2 Gtr. 3 (Distortion) play 4x
C#|---------------------------------------------------------------------------|
G#|---------------------------------------------------------------------------|
 E|-9-9-9-9--9-9--12-12-12\5-5/7-7-7-7-7\2-2-xx-8-8---------------------------|
 B|-9-9-9-9--9-9--12-12-12\5-5/7-7-7-7-7\2-2-xx-8-8---------------------------|
F#|-7-7-7-7--7-7--10-10-10\3-3/5-5-5-5-5\0-0-xx-6-6---------------------------|
C#|---------------------------------------------------------------------------|

Gtr. 1 play Chorus 1 part 2x with distortion on

Chorus 2 Gtr. 2 & 3 (Distortion)
C#|-----------------------------------------------------|        }
G#|-----------------------------------------------------|        }
 E|-----------------------------------------------------|        }
 B|-2-2-2-2/5-5-5/7-7-7-7-7/8-8-8-8---------------------|play 3x }
F#|-2-2-2-2/5-5-5/7-7-7-7-7/8-8-8-8---------------------|        }
C#|-0-0-0-0/3-3-3/5-5-5-5-5/6-6-6-6---------------------|        }
Then                                                             }play 2x
C#|-----------------------------------------------------|        }
G#|-----------------------------------------------------|        }
 E|-----------------------------------------------------|        }
 B|-10-10-10-10-10-10-10-10/12-12-12-12-12-12-12-12-----|        }
F#|-10-10-10-10-10-10-10-10/12-12-12-12-12-12-12-12-----|        }
C#|-8--8--8--8--8--8--8--8-/10-10-10-10-10-10-10-10-----|        }

Guitar Solo Gtr. 2 (Distortion + Slight Delay + Slight Reverb)
C#|------------------------------------------------------------------|
G#|--12--12--12--12--12----------10--10--12-12-12-12-12b--13-13-13/12|
 E|---------------------9----12--------------------------------------|
 B|------------------------------------------------------------------|
F#|------------------------------------------------------------------|
C#|------------------------------------------------------------------|

C#|--------------------------------------------------------------|
G#|--12-12-12-12-12----------------------------------------------|
 E|-----------------9---12-12-12-12-12-12p9-9-9--9-9\7-7/9-9-9-9-|
 B|--------------------------------------------------------------|
F#|--------------------------------------------------------------|
C#|--------------------------------------------------------------|

Repeat First Bar

C#|------------------------------------------------------|
G#|--12-12-12-12-12--------------------------------------|
 E|-----------------9--9\7-7-7-7\5--5\4-4-4\2-2-2-2-4-5-4|
 B|------------------------------------------------------|
F#|------------------------------------------------------|
C#|------------------------------------------------------|

C#|--------------------------------------------------------|
G#|--12--12-------10-10-12-12-12-12-------10-10-12-12-12---|
 E|---------9--12-------------------9--12----------------9-|
 B|--------------------------------------------------------|
F#|--------------------------------------------------------|
C#|--------------------------------------------------------|

C#|-----------------------------------------------------|
G#|--15-------15--15-17---------------------------------|
 E|------12--------------14-14-14-12-12-12~-7-7-7-9-9-9-|
 B|-----------------------------------------------------|
F#|-----------------------------------------------------|
C#|-----------------------------------------------------|

C#|-----------------------------------------------------------|
G#|--12-12----------10-10--12-12-12~---------10-10--12-12-12--|
 E|--------9----12-------------------9~--12------------------9|
 B|-----------------------------------------------------------|
F#|-----------------------------------------------------------|
C#|-----------------------------------------------------------|

C#|-----------------------------------------------------------|
G#|--15------15--15-17-17-------------------------------------|
 E|-----12-----------------14--14-12--12-11-11-7--7-12-12-14~~|
 B|-----------------------------------------------------------|
F#|-----------------------------------------------------------|
C#|-----------------------------------------------------------|

Gtrs. 1 & 3 are tacet for solo (silent)

Gtr. 2 & 3 play play 2nd Chorus 2x through for final chorus

Gtr. 1 play 2nd chorus whole way through 1 time then play this for ending part

Outro Gtr. 1 (Distortion + Reverb + Tape Delay + Talkbox?) play 2x
C#|------------------------------------------------------------------------|
G#|------------------------------------------------------------------------|
 E|-11~-12-12~-14-14~-16--16-----------------------------------------------|play 3x
 B|------------------------------------------------------------------------|
F#|------------------------------------------------------------------------|
C#|------------------------------------------------------------------------|
then
C#|-3-3-3-3-3-3-3-3/--15--15--15-------------------------------------------|
G#|-5-5-5-5-5-5-5-5/17--17--17--17-17--------------------------------------|
 E|------------------------------------------------------------------------|
 B|------------------------------------------------------------------------|
F#|------------------------------------------------------------------------|
C#|------------------------------------------------------------------------|

The End

If you have any fixes Email me at smboo28@aim.com
Enjoy!

| /  slide up
| \  slide down
| h  hammer-on
| p  pull-off
| ~  vibrato
| +  harmonic
| x  Mute note
===============================================================================
comments
We did not receive enough feedback on this tab! Please rate:
print report bad tab
1 2 3 4 5
11 comments total. Showing first comments.
0 reply
xmarienx wrote on August 26 2008, 01:37 pm

about your part where B|-2-2--2-5------------1| i can play it a
F#|----------3--5--5-0---| different way on
my bass guitar
and it sounds the
same exact and
maybe there is
only two guitars
in this song the
bass and guitar

0 reply
SMBoo28 wrote on August 26 2008, 03:08 pm

yeah that is a possibility that part ive been very confused whether its guitar or bass however there is a bass part that comes in shortly after that while that is still going so im not sure if they actually have 2 bass parts or 3 guitars

0 reply
xmarienx wrote on August 26 2008, 03:15 pm

ya cuz im working on this bass tab right now

I want to post or [tab]
guest
You may want to rate the tab now too:
select rating
Please do not post tabs as comments. Select "correction" instead!