Oops, an error
Loading. Please wait.

Iodine Sky Bass Tab

903 views 1 this week
no commentswrite comment
1 2 3 4 5
x 3
add to favorites
launch autoscroll
font size
0
reset
guitar tuner
Autoscroll
slow
fast
+/-
esc
set tempo
stop
Help us to improve Ultimate-Guitar.com Take our survey!
×
Author
Difficulty
novice
-------------------------------------------------------------------------------
Iodine Sky - Black light burns
-------------------------------------------------------------------------------

Tabbed By :xmarienx
e-mail:beardman44@hotmail.com

Tuning:standard

intro 0:05
::G|-----------------------------------------------|
::D|----7------------7------------7----------------|
::A|-5-----3------5-----3------5-----3-----2-3-2-0-|
::E|-----------------------------------------------|

G|------------------------7-----------------------|
D|----7------------7-------------7----------------|
A|-5-----3------5-----3-------5-----3-----2-3-2-0-|
E|------------------------------------------------|

G|--------------------------------------------------------|
D|----7------------7------------7------------7------------|
A|-5-----3------5-----3------5-----3------5-----3---3-2-0-|
E|--------------------------------------------------------|

G|-----------------------7-----------------------|::
D|----7------------7-----------7-----------------|::
A|-5-----3------5-----3-----5-----3----2-2-3-2-0-|::
E|-----------------------------------------------|::x5

then

G|--------------------------------------------------------|
D|----7------------7------------7------------7------------|
A|-5-----3------5-----3------5-----3------5-----3---3-2-0-|
E|--------------------------------------------------------|

G|-----------------------7-----------------------|
D|----7------------7-----------7-----------------|
A|-5-----3------5-----3-----5-----3----2-2-3-2-0-|
E|-----------------------------------------------|

::G|----------------------------------------------|
::D|----7-----------7------------7----------------|
::A|-5-----3-----5-----3------5-----3-----2-3-2-0-|
::E|----------------------------------------------|

G|-----------------------7----------------------|
D|----7------------7-----------7----------------|
A|-5-----3------5-----3-----5-----3-----2-3-2-0-|
E|----------------------------------------------|

G|--------------------------------------------------------|
D|----7------------7------------7------------7------------|
A|-5-----3------5-----3------5-----3------5-----3---3-2-0-|
E|--------------------------------------------------------|

G|-----------------------7------------------------|::
D|----7------------7-----------7------------------|::
A|-5-----3------5-----3-----5-----3-----2-2-3-2-0-|::
E|------------------------------------------------|::x2

then

G|-----------------------------------------------|
D|----7------------7------------7----------------|
A|-5-----3------5-----3------5-----3-----2-3-2-0-|
E|-----------------------------------------------|

G|----------------------7----------------------|
D|----7-----------7-----------7----------------|
A|-5-----3-----5-----3-----5-----3-----2-3-2-0-|
E|---------------------------------------------|

and thats it

Suggest correction
Give kudos to tab author, rate the tab!
1 2 3 4 5
comments
print report bad tab
guest
You may want to rate the tab now too:
select rating
Wanna post a correction for this tab? Suggest correction