Oops, an error
Loading. Please wait.

Lie Bass Tab

1,829 views 1 this week
no commentswrite comment
1 2 3 4 5
accurate
x 4
add to favorites
launch autoscroll
font size
0
reset
guitar tuner
Autoscroll
slow
fast
+/-
esc
set tempo
stop
Help us to improve Ultimate-Guitar.com Take our survey!
×
Author
Difficulty
intermediate
-------------------------------------------------------------------------------
			     lie - black light burns
-------------------------------------------------------------------------------

Tabbed By :xmarienx 
e-mail:beardman44@hotmail.com 

Tuning:standard

intro 0:19

G|-(hit each one a bunch of times)-| ]
D|---------------------------------| ]
A|-2--3--0-------------------------| ]
E|---------------------------------| ]
                                     ]
G|-(hit each one a bunch of times)-| ]
D|----------3----------------------| ]
A|-2--3--0-----3-------------------| ]
E|---------------------------------| ] reapeat x2

G|---------------------------------------|
D|--------------------33333333-----------|
A|-22222222-55555555------------33333333-|
E|---------------------------------------|

G|-----------------------------------------|
D|--------------------33333333-------------|
A|-22222222-55555555------------2-3-3-3-3-2|
E|-----------------------------------------|

G|---------------------------------------|
D|--------------------33333333-----------|
A|-22222222-55555555------------33333333-|
E|---------------------------------------|x4

G|-(hit each one a bunch of times)-| ]
D|---------------------------------| ]
A|-2--3--0-------------------------| ]
E|---------------------------------| ]
                                     ]
G|-(hit each one a bunch of times)-| ]
D|----------3----------------------| ]
A|-2--3--0-----3-------------------| ]
E|---------------------------------| ] repeat x2

G|------------------------------------------|
D|--------------------33333333--------------|
A|-22222222-55555555------------2-3-3-3-3-2-|
E|------------------------------------------|

G|---------------------------------------|
D|--------------------33333333-----------|
A|-22222222-55555555------------33333333-|
E|---------------------------------------|x6

G|---------------------------------------------------|
D|---------------------------------------------------|
A|-2222222222222222-2-2s6s2-2-2s6s2-2222222222222222-|
E|---------------------------------------------------|

G|---------------------------------------|
D|--------------------33333333-----------|
A|-22222222-55555555------------33333333-|
E|---------------------------------------|x8

second time play this
  ________________________________________________
 [                                                ]
G|---------------------------------------------------------|
D|---------------------------------------------------------|
A|-2-2s6s2-2-2s6s2-2222222222-2-2s6s2-2-2222222222-2-2s6s2-|
E|---------------------------------------------------------|x2
Suggest correction
comments
print report bad tab
guest
You may want to rate the tab now too:
select rating
Please do not post tabs as comments. Select "correction" instead!