Oops, an error
Loading. Please wait.

Lie Tab

version 2
version 2

Whole song

1,038 views 1 this week
1 commentread comment
1 2 3 4 5
worth learning
x 4
add to favorites
launch autoscroll
font size
0
reset
how to read this tab
guitar tuner
Autoscroll
slow
fast
+/-
esc
set tempo
stop
Help us to improve Ultimate-Guitar.com Take our survey!
×
Author
Difficulty
Tuning
novice
B F# B E G# C#
"Black  Light Burns - Lie"
tabbed by bmatrix
tuning: Drop B (low to high: BFA#D#GC)
//full song without solo
//26.08.2007 - some corrects

Intro

Verse

C||------------------------------------------------------|
G||----17-(repeat some times)/-18-(repeat)/-15 (repeat)--|
D#||-----------------------------------------------------|
A#||-----------------------------------------------------|
F||------------------------------------------------------|
B||------------------------------------------------------|

Pre Chorus:

C||------------------------------------------------------------------|
G||------------------------------------------------------------------|
D#||-----------------------------------------------------------------|
A#||-----------------------------------------------------------------|
F||------------------------------------------------------------------|
B||--0-0-0-0-0-0-0-0-3-3-3-3-3-3-3-3-6-6-6-6-6-6-6-6-1-1-1-1-1-1-1-1-|

C||-------------|
G||-------------|
D#||------------|
A#||-3-3-3-1-2--|
F||--3-3-3-1-2--|
B||--3-3-3-1-2--|

Chorus:

C||------------------------------------------------------------------|
G||------------------------------------------------------------------|
D#||-----------------------------------------------------------------|
A#||-2-2-2-2-2-2-2-2-5-5-5-5-5-5-5-5-8-8-8-8-8-8-8-8-3-3-3-3-3-3-3-3-|
F||--2-2-2-2-2-2-2-2-5-5-5-5-5-5-5-5-8-8-8-8-8-8-8-8-3-3-3-3-3-3-3-3-|
B||--2-2-2-2-2-2-2-2-5-5-5-5-5-5-5-5-8-8-8-8-8-8-8-8-3-3-3-3-3-3-3-3-|

Verse

Pre chorus

Chorus

Pre solo:

C||---------------------------------------------------|
G||---------------------------------------------------|
D#||--------------------------------------------------|
A#||--------------------------------------------------|
F||--------7--6/5-------------------------------------|
B||--0-3-0---0----3-0-0-0---0-3-0-3-0-0---0-3-0-3-0-0-|

Solo ( I couldn't do this )
Suggest correction
What's this?
You can suggest a correction to this tab. Community and Mods will review your correction and vote to approve or reject it.
comments
print report bad tab
1 comment total.
0 reply
Tias 347 wrote on July 14 2007, 08:52 am

dude you tabbed it in E, but its in B
But in B its right (i think)

guest
You may want to rate the tab now too:
select rating
Please do not post tabs as comments. Select "correction" instead!