Oops, an error
Loading. Please wait.

Lie Tab

version 3
version 3

Whole song

880 views 1 this week
1 commentread comment
1 2 3 4 5
please rate
add to favorites
launch autoscroll
font size
0
reset
how to read this tab
guitar tuner
Autoscroll
slow
fast
+/-
esc
set tempo
stop
Help us to improve Ultimate-Guitar.com Take our survey!
×
Author
Difficulty
Tuning
intermediate
B F# B E G# C#
-------------------------------------------------------------------------------
                             LIE - Black Light Burns
-------------------------------------------------------------------------------
Tabbed by: TheWicked90

Tuning: Drop B
low to high: B F# b E G# C#

Intro
guitar 1 tremolo picking
|-17-18-15----------------------------------------------------------------------|
|----------15-------------------------------------------------------------------|
|-------------------------------------------------------------------------------|
|-------------------------------------------------------------------------------|
|-------------------------------------------------------------------------------|
|-------------------------------------------------------------------------------|

Verse1 &2
|-17-18-15----------------------------------------------------------------------|
|-------------------------------------------------------------------------------|
|-------------------------------------------------------------------------------|
|-------------------------------------------------------------------------------|
|-------------------------------------------------------------------------------|
|-------------------------------------------------------------------------------|

Pre-chorus
Play twice after first verse
Play once after second verse; end both times on second ending
|-------------------------------------------------------------------------------|
|-------------------------------------------------------------------------------|
|-------------------------------------------------------------------------------|
|-0-3-6-1-----------------------------------------------------------------------|
|-0-3-6-1-----------------------------------------------------------------------|
|-0-3-6-1-----------------------------------------------------------------------|
p.m. (play each 8 times)

second ending
|-------------------------------------------------------------------------------|
|-------------------------------------------------------------------------------|
|-------------------------------------------------------------------------------|
|-1-1-1-1-----------------------------------------------------------------------|
|-1-1-1-1-----------------------------------------------------------------------|
|-1-1-1-1-----------------------------------------------------------------------|



Chorus
|---------------------------------------------------------------------------|
|---------------------------------------------------------------------------|
|---------------------------------------------------------------------------|
|-0-3-6-1-------------------------------------------------------------------|
|-0-3-6-1-------------------------------------------------------------------|
|-0-3-6-1-------------------------------------------------------------------|
repeat


Interlude
Guitar 1
|-----------------------------------------------------------------------------|
|-----------------------------------------------------------------------------|
|-----------------------------------------------------------------------------|
|-----------------------------------------------------------------------------|
|-5\---5----------------------------------------------------------------------|
|----0---0-0-6-5-0-3-5-3-2-3\-0-0--0-3-2-3\-0-0--0-3-2------------------------|
repeat (x4)

Guitar 2 comes in 3rd time guitar 1 repeats
|---------------------------------------------------------------------------|
|---------------------------------------------------------------------------|
|-7--10--7------------------------------------------------------------------|
|-x--x---x------------------------------------------------------------------|
|-5--8---5------------------------------------------------------------------|
|---------------------------------------------------------------------------|
repeat (x2)
strumming pattern isnt too hard to figure out

|----------1----------1-------3p2p1-------------------------------------------|
|-----------------------------------------------------------------------------|
|-0-0h2h3---3b--0h2h3---3b-3-------3b-3-2b------------------------------------|
|-----------------------------------------------------------------------------|
|-----------------------------------------------------------------------------|
|-----------------------------------------------------------------------------|

|--------------------------------------------------------------------------------|
|-8-----10-----11----------------------------------------------------------------|
|-x-(x2)-x (x2)--x-(x2)----------------------------------------------------------|
|-5-----7------8-----------------------------------------------------------------|
|--------------------------------------------------------------------------------|
|--------------------------------------------------------------------------------|

|-----------------------------------------------------------------------------|
|-13-11-10-7------------------------------------------------------------------|
|-x--x--x--x------------------------------------------------------------------|
|-10-9--7--4------------------------------------------------------------------|
|-----------------------------------------------------------------------------|
|-----------------------------------------------------------------------------|
tremolo picking

|-----------------------------------------18-18-17-14-18-17-14-18-18-17-14----|
|--------------------11-10----------------------------------------------------|
|---------------------------------11---12-------------------------------------|
|-10-12-10-12-10-12-------10-12----10-----------------------------------------|
|-----------------------------------------------------------------------------|
|-----------------------------------------------------------------------------|

|-20-21-----------------------------------------------------------------------|
|-------13-15-15-13---7-/-15-------------------------------------------------|
|--------x--x--x--x---x---x--------------------------------------------------|
|-------10-12-12-10---4-/-12--------------------------------------------------|
|-----------------------------------------------------------------------------|
|-----------------------------------------------------------------------------|


repeat chorus
guitar 1 & guitar 2

then

guitar 1
|-----------------------------------------------------------------------------|
|-----------------------------------------------------------------------------|
|-----------------------------------------------------------------------------|
|-----------------------------------------------------------------------------|
|-5\---5----------------------------------------------------------------------|
|----0---0-0-6-5-0-3-5-3-2-3\-0-0--0-3-2-3\-0-0--0-3-2------------------------|
repeat (x4)

guitar 2
|---------------------------------------------------------------------------|
|---------------------------------------------------------------------------|
|-7-8-7-11------------------------------------------------------------------|
|-x-x-x-x-------------------------------------------------------------------|
|-5-6-5-9-------------------------------------------------------------------|
|---------------------------------------------------------------------------|
fast picking
repeat (x4)

both guitars end on
|---------------------------------------------------------------------------|
|---------------------------------------------------------------------------|
|---------------------------------------------------------------------------|
|-0-------------------------------------------------------------------------|
|-0-------------------------------------------------------------------------|
|-0-------------------------------------------------------------------------|

| /  slide up
| \  slide down
| h  hammer-on
| p  pull-off
| ~  vibrato
| +  harmonic
| x  Mute note
===============================================================================
Suggest correction
Give kudos to tab author, rate the tab!
1 2 3 4 5
comments
print report bad tab
1 comment total.
0 reply
xmarienx 115 wrote on August 28 2008, 09:32 pm

this is confusing

guest
You may want to rate the tab now too:
select rating
Please do not post tabs as comments. Select "correction" instead!