Oops, an error
Loading. Please wait.

Mesopotamia Tab

version 1
version 1

Whole song

Interactive

1,001 views 1 this week
no commentswrite comment
1 2 3 4 5
x 3
add to favorites
launch autoscroll
font size
0
reset
how to read this tab
guitar tuner
Autoscroll
slow
fast
+/-
esc
set tempo
stop
Help us to improve Ultimate-Guitar.com Take our survey!
×
Author
Tuning
B F# B E G# C#
                        MESOPOTAMIA - Black Light Burns
-------------------------------------------------------------------------------
Tabbed by: Superduck
Email: Superduck90210@comcast.net

Tuning: Drop B

The song is based on the B5 chord. It uses Drop B to get a little extra heaviness.
You'll have to listen to the song to figure out how many of each chord there is,
and rhythms.

Main Verse:

e|---------------------------|
B|---------------------------|
G|---------------------------|
D|4--------------------------|
A|2--------------------------|
B|0--------------------------|

See what I mean?

Verse ending/Chorus

e|---------------------------|
B|---------------------------|
G|---------------------------|
D|7-4------------------------|
A|5-2------------------------|
B|--0------------------------|

Bridge (repeat as many as necessary)

e|---------------------------|
B|---------------------------|
G|4-4-x-7-7-7----------------|
D|4-4-x-7-7-7-7-7-7-7-7-8----|
A|2-2-x-5-5-5-7-7-7-7-7-8----|
B|0-0------------------------|

By the end of the song, the Verse ending/Chorus adds in this riff. Play it with or instead
of the original.


e|---------------------------|
B|---------------------------|
G|---------------------------|
D|---------------------------|
A|---------------------------|
B|6-2-3-0--------------------|

Listen carefully for it, it kind of hides. Actually I removed the vocals to learn the parts.

There's a solo but I'm not sure how to play it yet.
Suggest correction
Give kudos to tab author, rate the tab!
1 2 3 4 5
comments
print report bad tab
guest
You may want to rate the tab now too:
select rating
Wanna post a correction for this tab? Suggest correction