Oops, an error
Loading. Please wait.

One Of Yours Tab

2,992 views 3 this week
4 commentsread comments
1 2 3 4 5
accurate
x 3
add to favorites
launch autoscroll
font size
0
reset
how to read this tab
guitar tuner
Tab Pro tools
  • play this tab
  • loop segment
  • change instrument
  • show fretboard
  • metronome
×
Best way to learn
"One Of Yours"
Autoscroll
slow
fast
+/-
esc
set tempo
stop
Contributor
Difficulty
intermediate
-------------------------------------------------------------------------------
                      One Of Yours - Black Light Burns
-------------------------------------------------------------------------------
Tabbed by: Stephen McFall
Email: smboo28@aim.com

I watched a video of Borland playing the intro of this song in a guitar shop on his
Yamaha six-string guitar then I saw a live video with him playing a Danelectro Baritone
in (B,E,A,D,G,B) tuning (Standard Baritone) this tab is written for standard six-string

Tuning: Gtr. 1 (Lohner) & 2 (Borland) 1 and ½ steps down Drop D low to high (B,F#,B,E,G#,C#)

Intro/Verse Riff (Gtr. 1) (Rectifier Distortion with gain turned down almost all the 
play 4x for
then 4x for 1st Verse dont repeat note before bars
C#|--|-----------------------------------------------------------|
G#|--|-----------------------------------------------------------|
 E|--|-----------------------------------------------------------|
 B|--|-----------------------------1-0---------------------------|
F#|--|-5-----------5-----3-3---------------------5-------3-------|
 B|-0|---0-0-0-1-3---0-1-----0-1-3-----0-0-0-1-3---0-1-5---0-1-3-|
PM       * * * * *   * *     * * *     * * * * *   * * *   * * *

Intro/Verse Riff Gtr. 2 (Distorted + Medium Echo) (Very Quietly + Tremolo Picked) These
are
slow
C#|-22b23---------------------22b23-------------------------------------------|
G#|---------------------------------------------------------------------------|
 E|---------------------------------------------------------------------------|
 B|---------------------------------------------------------------------------|
F#|---------------------------------------------------------------------------|
 B|---------------------------------------------------------------------------|


Pre-Chorus Gtr. 1 & 2 (Distorted) play all 3 & ½ times part past the bar is played by
Gtr. 1
C#|------------------------------|------------------------------|
G#|------------------------------|------------------------------|
 E|------------------------------|------------------------------|
 B|-6--6-6-6--1-1-1-0------------|------------------------------|
F#|-6--6-6-6--1-1-1-0------------|-5-----------5-----3-3--------|
 B|-6--6-6-6--1-1-1-0------------|---0-0-0-1-3---0-1-----0-1-3--|
PM                                   * * * * *   * *     * * *

Chorus Gtr. 1 (Distortion + Tape Delay) play 2x for 1st Chorus
C#|------------------------------------------------------------------------------------|
G#|----------------------------------------------11-11-11p10-10-10p8-8h10-10p8-11p8-10-|
 E|-11p7-7-7-7-57-57-5h7-77-7-787-787-11-11-11-7---------------------------------------|
 B|------------------------------------------------------------------------------------|
F#|------------------------------------------------------------------------------------|
 B|------------------------------------------------------------------------------------|

Chorus Gtr. 2 (Distortion) play 2x
C#|---------------------------------------------------------------------------|
G#|---------------------------------------------------------------------------|
 E|-7--------------------12-----------7----------------12---------------------|
 B|-x--------------------x------------x----------------x----------------------|
F#|-5--------------------10-----------5----------------10---------------------|
 B|---------------------------------------------------------------------------|

Note
All low notes in chorus are bass not guitar

Gtr. 1 plays Intro Riff 2x for Break

Break Gtr. 2 (Distortion + Auto-Wah + post-distortion Envelope filter(in other words
up an autowah before your distortion and an autowah after distortion)) (Ive watched videos
them and they just play this with distortion)
C#|---------------------------------------------------------------------------|
G#|---------------------------------------------------------------------------|
 E|--------------------10-------10----10-12-13~-16-13-------------------------|
 B|-10-10-11-11-12~-12----12-12----12-----------------10-10-11-11-12~-12~~~\0-|
F#|---------------------------------------------------------------------------|
 B|---------------------------------------------------------------------------|

Gtr. 1 plays Intro Riff 4x for Verse 2

Verse 2 Gtr. 2 (Distortion + Medium Echo) (Very Quietly + Tremolo Picked) play 2x
C#|-22b23r22-20-18-17-15-14-11-10---------------------------------------------|
G#|---------------------------------------------------------------------------|
 E|---------------------------------------------------------------------------|
 B|---------------------------------------------------------------------------|
F#|---------------------------------------------------------------------------|
 B|---------------------------------------------------------------------------|

Repeat Pre-Chorus

Repeat Chorus

Bridge Sitar (Clean) play 4x
C#|--------------------------------------------------------------------------------|
G#|--------------------------------------------------------------------------------|
 E|--------------------------------------------------------------------------------|
 B|-----3b4r3-----5b6r5-----3b4r3---------5-----2b3r2-----3b5r3-----2b3r2-------3b4|
F#|---5---------5---------5---------5b6-------3---------3---------3---------3-5----|
 B|-0---------0---------0---------0-----0---3---------3---------3---------3--------|

Bridge Gtrs. 1 (first part only once singing comes in play the sitar part except Palm
each note and play heavily distorted)  & 2 (Distorted + Medium Echo) 2nd part starts when
sings (Replace the
and is
Tremolo Picked and very quiet
C#|-------------------------22---20b20.5b21---22---20b20.5b21~~(let ring)-----|
G#|---------------------------------------------------------------------------|
 E|-7-------------------------------------------------------------------------|
 B|-7\0-----------------------------------------------------------------------|
F#|-5\0-----------------------------------------------------------------------|
 B|---0-----------------------------------------------------------------------|

Gtr. 1 plays Intro Riff 2x for Break 2 while Gtr. 2 lets the 21 ring

Repeat Pre-Chorus

Repeat Chorus

Gtr. 1 play Chorus again for Guitar Solo

Guitar Solo Gtr. 2 (Distorted + Tape Delay) play 2x
C#|14~-10~-8h10-10-8h10-11-10-11-10-11-14~-10~-18-18-18p17-17-17p15-15-15-17p15-18p15-17~|
G#|--------------------------------------------------------------------------------------|
 E|--------------------------------------------------------------------------------------|
 B|--------------------------------------------------------------------------------------|
F#|--------------------------------------------------------------------------------------|
 B|--------------------------------------------------------------------------------------|

Gtr. 2 play Break 1 for Outro

Outro Gtr. 1 (Same settings as intro)
C#|---------------------------------------------------------------------------|
G#|---------------------------------------------------------------------------|
 E|---------------------------------------------------------------------------|
 B|-----------------------------1-0-------------------------------------------|
F#|-5-----------5-----3-3---------------------5-------3-----------------------|
 B|---0-0-0-1-3---0-1-----0-1-3-----0-0-0-1-3---0-1-5---0-1-3-----------------|
PM    * * * * *   * *     * * *     * * * * *   * * *   * * *
then
C#|---------------------------------------------------------------------------|
G#|---------------------------------------------------------------------------|
 E|---------------------------------------------------------------------------|
 B|-----------------------------1-0-----------------3-1-0---------------------|
F#|-5-----------5-----3-3---------------------5-----3-1-0---------------------|
 B|---0-0-0-1-3---0-1-----0-1-3-----0-0-0-1-3---0-1-3-1-0---------------------|
PM    * * * * *   * *     * * *     * * * * *   * *

The End

If you have any fixes please email them to me at smboo28@aim.com thank you
please Rate as this took me a while to write especially Intro Riff

| /  slide up
| \  slide down
| h  hammer-on
| p  pull-off
| ~  vibrato
| +  harmonic
| x  Mute note
===============================================================================
comments
We did not receive enough feedback on this tab! Please rate:
print report bad tab
1 2 3 4 5
4 comments total. Showing first comments.
-1 reply
tamiravigan wrote on June 21 2008, 06:05 am

wtf?!
not even close!!

0 reply
tamiravigan wrote on June 21 2008, 06:09 am

that's absolutely taping part(the intro)
i saw it too and in the TGM videos he played a part like it.

-1 reply
SMBoo28 wrote on September 27 2008, 07:58 pm

please rate! this tamiravigan guy is an idiot

and probably a vegan

so why should we listen to him

I want to post or [tab]
guest
You may want to rate the tab now too:
select rating
Please do not post tabs as comments. Select "correction" instead!