Oops, an error
Loading. Please wait.

The Mark Bass Tab

972 views 1 this week
1 commentread comment
1 2 3 4 5
1 last vote to show rating
add to favorites
launch autoscroll
font size
0
reset
guitar tuner
Autoscroll
slow
fast
+/-
esc
set tempo
stop
Help us to improve Ultimate-Guitar.com Take our survey!
×
Author
Difficulty
Tuning
novice
C# G# C# F# A# D#
-------------------------------------------------------------------------------
			     The Mark - Black Light Burns
-------------------------------------------------------------------------------

Tabbed By : Necrotic
e-mail: joelschwallier@gmail.com

Tuning: Standard


It's optional to play some parts (intro/pre-verse, verse, and chorus) up an octave. It 
sound better/different.

Intro
E |----------------------------------------------------------------|
B |----------------------------------------------------------------|
F#|----------------------------------------------------------------|
C#|0-0-0-0-0-0-0-0-0-0-0-0-0-0-0-0-0-0-0-0-0-0-0-0-0-0-0-0-0-0-0-0-|

E |----------------------------------------------------------------|
B |----------------------------------------------------------------|
F#|--------------------------------1-1-------1-1---------1-1-------|
C#|0-0-x-0-0-0-x-0-3-3-x-3-3-3-x-3-----0-0-------0-0---------0-0-0-|x2

Verse
E |----------------------------------------------------------------|
B |----------------------------------------------------------------|
F#|--------------------------------1-1-------1-1---------1-1-------|
C#|0-0-0-0-0-0-0-0-3-3-3-3-3-3-3-3-----0-0-------0-0---------0-0-0-|x4

Chorus
E |-----------------------|
B |-----------------------|
F#|-----------------------|
C#|00-01-3-00-1/15/1-1----|x4

Pre-verse
E |--------------------------------|
B |--------------------------------|
F#|--------------------------------|
C#|0-0-0-0-0-0-0-0-0-0-0-0-0-0-0-0-|

Verse
E |----------------------------------------------------------------|
B |----------------------------------------------------------------|
F#|--------------------------------1-1-------1-1---------1-1-------|
C#|0-0-x-0-0-0-x-0-3-3-x-3-3-3-x-3-----0-0-------0-0---------0-0-0-|

E |----------------------------------------------------------------|
B |----------------------------------------------------------------|
F#|--------------------------------1-1-------1-1---------1-1-------|
C#|0-0-0-0-0-0-0-0-3-3-3-3-3-3-3-3-----0-0-------0-0---------0-0-0-|x3

Chorus
E |-----------------------|
B |-----------------------|
F#|-----------------------|
C#|00-01-3-00-1/15/1-1----|x4

Post-Chorus
E |-----------------|
B |-----------------|
F#|4----------------|
C#|0-xxx0-xx10-xxx0-|

Bridge
E |--------5-5-5-5-----------------|
B |2-2-2-2-------------------------|
F#|----------------0-0-0-0-3-3-----|
C#|----------------------------4-4-|x8

rest 2 measures while guitar plays chorus

Chorus until end
E |-----------------------|
B |-----------------------|
F#|-----------------------|
C#|00-01-3-00-1/15/1-1----|x4


| /  slide up
| \  slide down
| h  hammer-on
| p  pull-off
| ~  vibrato
| +  harmonic
| x  Mute note
===============================================================================
Suggest correction
Give kudos to tab author, rate the tab!
1 2 3 4 5
comments
print report bad tab
1 comment total.
0 reply
thephoenixseal@ 378 Jul 13, 2009 05:31 AM

4,7 ! Thank you! :)

guest
You may want to rate the tab now too:
select rating
Wanna post a correction for this tab? Suggest correction