Oops, an error
Loading. Please wait.

The Mark Tab

version 2
version 2

Whole song

3,498 views 3 this week
7 commentsread comments
1 2 3 4 5
please rate
add to favorites
launch autoscroll
font size
0
reset
how to read this tab
guitar tuner
Autoscroll
slow
fast
+/-
esc
set tempo
stop
Help us to improve Ultimate-Guitar.com Take our survey!
×
Author
Difficulty
intermediate
-----------------------------------------------------------------------------------------
                               The Mark - Black Light Burns
-----------------------------------------------------------------------------------------

Tabbed By: Stephen McFall
Email: smboo28@aim.com

Tuning: 


Intro Gtr. 1 (Clean) play once for Intro Pt. 1
C#|-----------------------------------------------------------------------|
G#|-----------------------------------------------------------------------|
 E|-9-9-9-9-9-9-9-9-9-9-9-9-9-9-9-9-9-9-9-9-9-9-9-9-9-9-9-9-9-9-9-9-------|
 B|-----------------------------------------------------------------------|
F#|-----------------------------------------------------------------------|
C#|-----------------------------------------------------------------------|

Verse Riff Gtr. 1 (Clean) play 2x for Intro Pt. 2 then play 4x for Verse 1
C#|-----------------------------------------------------------------------|
G#|-----------------------------------------------------------------------|
 E|-9-9-9-9-9-9-9-9-12-12-12-12-12-12-12-12-7-7-9-9--7-7-9-9---7-7-9-9-0--|
 B|-----------------------------------------------------------------------|
F#|-----------------------------------------------------------------------|
C#|-----------------------------------------------------------------------|

Verse Riff Gtr. 2 (Distorted) play 2x for Intro Pt. 2 then play 4x for Verse 1
C#|-----------------------------------------------------------------------|
G#|-----------------------------------------------------------------------|
 E|-----------------------------------------------------------------------|
 B|-2-2--2-2-2--2-5-5--5-5-5--55-8-8-2-2--8-8-2-2---8-8-2-2-0-------------|
F#|-2-2--2-2-2--2-5-5--5-5-5--55-8-8-2-2--8-8-2-2---8-8-2-2-0-------------|
C#|-0-0--0-0-0--0-3-3--3-3-3--33-6-6-0-0--6-6-0-0---6-6-0-0-0-------------|
PM  * *  * * *  * * *  * * *  ** * * * *  * * * *   * * * * *

Chorus Gtrs. 1 & 2 (Distorted) play 4x for Chorus 1
C#|---------------------------------------------------------------------|
G#|---------------------------------------------------------------------|
 E|---------------------------------------------------------------------|
 B|-2-----2---------2-3/15b16~--2---------------------------------------|
F#|-2-----2---------2-3/15b16~--2---------------------------------------|
C#|-0--00-0-+3+-000-0-1/13b14~--0---------------------------------------|
PM     **       ***

Post-Chorus 1 Gtr. 1 (Clean)
C#|-----------------------------------------------------------------------|
G#|-----------------------------------------------------------------------|
 E|-9-9-9-9-9-9-9-9-9-9-9-9-9-9-9-9---------------------------------------|
 B|-----------------------------------------------------------------------|
F#|-----------------------------------------------------------------------|
C#|-----------------------------------------------------------------------|

Verse 2 is the same as Verse 1 for Guitars

Chorus 2 is the same as Chorus 1 for Guitars

Post-Chorus 2 Gtrs. 1 & 2 (Distorted)
C#|-----------------------------------------------------------------------|
G#|-----------------------------------------------------------------------|
 E|-----------------------------------------------------------------------|
 B|-2-----2-----2----2----------------------------------------------------|
F#|-2-----2-----2----2----------------------------------------------------|
C#|-0-+3+-0-+3+-0-00-0----------------------------------------------------|
PM                **

Bridge Pt. 1 Gtr. 1 (Distorted) 
C#|------------------------------------------------------------------------|
G#|------------------------------------------------------------------------|
 E|-------9~-7-6-6~-------9~-7-7-6-5~-------9~-7-6-6~-------9~-7-7-6-4-5~\0|
 B|-6-7-6-----------6-7-6-------------6-7-6-----------6-7-6----------------|
F#|------------------------------------------------------------------------|
C#|------------------------------------------------------------------------|


Bridge Pt. 1 Gtr. 2 (Distorted + Heavy Delay) This comes in halfway the Bridge Pt. 1
C#|-10~-10~--8-10-8-7--8-7-7--7-7-7-5-5-5--3--3~~~------------------------|
G#|-----------------------------------------------------------------------|
 E|-----------------------------------------------------------------------|
 B|-----------------------------------------------------------------------|
F#|-----------------------------------------------------------------------|
C#|-----------------------------------------------------------------------|

There is an synth effect that sounds like its rhythm guitar throughout Bridge Pt. 1 & 2

Bridge Pt. 2 Gtr. 1 (Distorted) Comes in at 2:26
C#|-----------------------------------------------------------------------|
G#|-----------------------------------------------------------------------|
 E|-------9~-7-7-6-5~-------9~-7-6-6~-------9~-7-7-6-5~-------------------|
 B|-6-7-6-------------6-7-6-----------6-7-6-------------------------------|
F#|-----------------------------------------------------------------------|
C#|-----------------------------------------------------------------------|

Bridge Pt. 2 Gtr. 2 (Distorted) Comes in at 2:37
C#|-----------------------------------------------------------------------|
G#|-10-10-10-10-6-6-6-6---------------------------------------------------|
 E|-x--x--x--x--x-x-x-x---------------------------------------------------|
 B|-7--7--7--7--3-3-3-3---------------------------------------------------|
F#|-----------------------------------------------------------------------|
C#|-----------------------------------------------------------------------|

Pre-Chorus Gtrs. 1 & 2 (Distorted + Volume Compression Effect)
C#|---------------------------------------------------------------------|
G#|---------------------------------------------------------------------|
 E|---------------------------------------------------------------------|
 B|-2-----2---------2-3/15b16~--2---------------------------------------|
F#|-2-----2---------2-3/15b16~--2---------------------------------------|
C#|-0--00-0-+3+-000-0-1/13b14~--0---------------------------------------|
PM     **       ***

Then Play Chorus Riff 7x for Final Chorus
But after 5th time Gtr. 1 plays this real quick (Distorted)
C#|-----------------------------------------------------------------------|
G#|-----------------------------------------------------------------------|
 E|-----------------------------------------------------------------------|
 B|-----------------------------------------------------------------------|
F#|-----------------------------------------------------------------------|
C#|-+4+-0-6b7-------------------------------------------------------------|
This happens when theres a weird drum beat in there listen to the song and you’ll get it

Outro Gtrs. 1 & 2 (Distorted + Volume Compression Effect)
C#|---------------------------------------------------------------------|
G#|---------------------------------------------------------------------|
 E|---------------------------------------------------------------------|
 B|-2-----2---------2-3/15b16~--2---------------------------------------|
F#|-2-----2---------2-3/15b16~--2---------------------------------------|
C#|-0--00-0-+3+-000-0-1/13b14~--0---------------------------------------|
PM     **       ***

The End

If you have any fixes please email me at smboo28@aim.com
PLEASE RATE!!...good lol Thanks and enjoy!

| /  slide up
| \  slide down
| h  hammer-on
| p  pull-off
| ~  vibrato
| +  harmonic
| x  Mute note
===============================================================================
Suggest correction
What's this?
You can suggest a correction to this tab. Community and Mods will review your correction and vote to approve or reject it.
comments
We did not receive enough feedback on this tab! Please rate:
print report bad tab
1 2 3 4 5
7 comments total. Showing first comments.
0 reply
xmarienx 143 wrote on August 24 2008, 03:51 pm

uhh thats not the guitar that the bass for the intro and post chorus

0 reply
xmarienx 143 wrote on August 24 2008, 03:51 pm

uhh thats not the guitar that the bass for the intro and post chorus

0 reply
SMBoo28 499 wrote on August 24 2008, 05:53 pm

there is guitar & bass in those parts however this is only a guitar tab believe me its there

guest
You may want to rate the tab now too:
select rating
Please do not post tabs as comments. Select "correction" instead!