Oops, an error
Loading. Please wait.

Fall Of An Empire Tab

87 views 1 this week
no commentswrite comment
1 2 3 4 5
please rate
add to favorites
launch autoscroll
font size
0
reset
how to read this tab
guitar tuner
Autoscroll
slow
fast
+/-
esc
set tempo
stop
Help us to improve Ultimate-Guitar.com Take our survey!
×
Contributor


this is a song i made of the aflat minor harmonic scale. it took like a week to make it. ..

^ bend
/ slide
p pulloff


---------------------------------------------------------------------------|
---------------------------------------------------------------------------|
---------------------------------------------------------------------------|
--------------------------------6-7-9-10-9-7-6-----------------------------|
--------------------------5-7-8----------------8-7-5-----------------------|
-------4-5-7-8--7-5-4-0------------------------------8-7-5-4-0-------------|

---------------------------------------------------------------------------|
---------------------------------------------------------------------------|
---------------------------------------------------------------------------|
------------11----------8------------6-4-2-4-5-5-6-6-6-6-5-5-6-6-6-6-------|
--/11-13-14----14-13-11-9--/13-14-13-6-4-2-4-6-6-7-7-6-6-6-6-6-6-6-6-------|
---------------------------------------------------------------------------|

------------------------------------------------------------|
--------------------------------------|---------------------|
--------------------------------------|---------------------|
-----------11-------13-------14-------|---------------------|
--11-13-14----13-13----13-13----13-13-|--14-13-11-13-11-10--|
--------------------------------------|---------------------|
|:         play this 4 times         :|

---------------------------------------------------------------------------|
--------------------------------------|------------------------------------|
--------------------------------------|------------------------------------|
-----------11-------13-------14-------|------------------------------------|
--11-13-14----13-13----13-13----13-13-|--14-13-11-13-11-10-9-7-6~----------|
--------------------------------------|------------------------------------|
         play this 4 times again

---------------------------------------------------------------------------|
---------------------------------------------------------------------------|
---------------------------------------------------------------------------|
-------------------11---------------------------------------11----13-14/---|
--2---/11-11-13-14------4--11-13-14-13-11--6-11-13-14-13-11----13----------|
--0---------------------2------------------4-------------------------------|

---------------------------------------------------|
---------------------------------------------------|
---------------------------------------------------|
------------------11-------------------------------|
--2--/11-11-13-14-----4--11-13-14-13-11---6-6-6-6--|
--0-------------------2-------------------4-4-4-4--|


------------------------------------------------------------|
--------------------------------------|---------------------|
--------------------------------------|---------------------|
-----------11-------13-------14-------|---------------------|
--11-13-14----13-13----13-13----13-13-|--14-13-11-13-11-10--|
--------------------------------------|---------------------|
|:         play this 4 times         :|

-------------------------------------------------------------------|
--------------------------------------|----------------------------|
--------------------------------------|----------------------------|
-----------11-------13-------14-------|----------------------------|
--11-13-14----13-13----13-13----13-13-|--14-13-11-13-11-10-9-7-6~--|
--------------------------------------|----------------------------|


---1--1--0-|-------------------------------------|
---3--0--1-|-------------------------------------|
---2--0--2-|2---------4---------5---------7-7-5-4|
---0--0--2-|0-x-x-x-x-2-x-x-x-x-3-x-x-x-x-5-5-3-2|
------2--0-|-------------------------------------|
------3----|-------------------------------------|
                    reapeat 4 times

---------------------------------------------------------------------------|
---------------------------------------------------------------------------|
---------------------------------------------------------------------------|
--2--2-2-5-5-5-xx--4--4-4-7-7-7--------------------------------------------|
--0--0-0-3-3-3-xx--2--2-2-5-5-5--------------------------------------------|
---------------------------------------------------------------------------|
     |repeat untill solo|

  (solo)  tapping    play the whole solo twice

--12-5-8-12-5-8-12-5-8-12-5-8-12-5-7-12-5-7-12-4-7-12-4-7-12-5-8-12-5-8----|
---------------------------------------------------------------------------|
---------------------------------------------------------------------------|
---------------------------------------------------------------------------|
---------------------------------------------------------------------------|
---------------------------------------------------------------------------|

--12-5-8-12-5-8-12-5-7-12-5-7-12-4-7-12-4-7-12-5-8-12-5-8-12-5-8-12-5-8----|
---------------------------------------------------------------------------|
---------------------------------------------------------------------------|
---------------------------------------------------------------------------|
---------------------------------------------------------------------------|
---------------------------------------------------------------------------|

-12-7-10-12-7-10-12-7-10-12-7-10-12-4-7-12-4-7-12-4-7-12-4-7-12-4-7-12-4-7-|
---------------------------------------------------------------------------|
---------------------------------------------------------------------------|
---------------------------------------------------------------------------|
---------------------------------------------------------------------------|
---------------------------------------------------------------------------|

--12-4-7-12-4-7-12-5-8-12-5-8-12-5-8-12-5-8-12-4-7-12-4-8-12-4-8-12-4-8----|
---------------------------------------------------------------------------|
---------------------------------------------------------------------------|
---------------------------------------------------------------------------|
---------------------------------------------------------------------------|
---------------------------------------------------------------------------|

-12-4-7-12-5-8-12-5-8-12-5-8-12-5-8-12-7-10-12-7-10-12-7-10-12-7-10-12~----|
---------------------------------------------------------------------------|
---------------------------------------------------------------------------|
---------------------------------------------------------------------------|
---------------------------------------------------------------------------|
---------------------------------------------------------------------------|

     (solo ends)

---------------------------------------------------------------------------|
---------------------------------------------------------------------------|
---------------------------------------------------------------------------|
---2--2-2-5-5-5-xx-4--4-4-5-5-5--------------------------------------------|
---0--0-0-3-3-3-XX-2--2-2-5-5-5--------------------------------------------|
---------------------------------------------------------------------------|
       repeat 4 times


---------------------------------------------------------------------------|
---------------------------------------------------------------------------|
---------------------------------------------------------------------------|
----9p6---9p6---9p6---9p6----7p4---7p4---7p4----7p4------------------------|
-------7p6---7p6---7p6----7p6---5p4---5p4----5p4---5p4---------------------|
---------------------------------------------------------------------------|
                   repeat 4 times


---------------------------------------------------------------------------|
---------------------------------------------------------------------------|
--4~-----------------------------------------------------------------------|
--4~-----------------------------------------------------------------------|
---------------------------------------------------------------------------|
---------------------------------------------------------------------------|

         . . .then the song ends
comments
We did not receive enough feedback on this tab! Please rate:
print report bad tab
1 2 3 4 5
I want to post or [tab]
guest
You may want to rate the tab now too:
select rating
Please do not post tabs as comments. Select "correction" instead!