Oops, an error
Loading. Please wait.

Family Tree Bass Tab

2,831 views 3 this week
no commentswrite comment
1 2 3 4 5
please rate
add to favorites
launch autoscroll
font size
0
reset
guitar tuner
Autoscroll
slow
fast
+/-
esc
set tempo
stop
Help us to improve Ultimate-Guitar.com Take our survey!
×
Author
Black Lips
Family Tree
tabbed by Logan
5/10/2012

Intro

G----------------------------------------------|
D----------------------------------------------|
A-0-0-2-4-555555555555555-4-2-0000000000000000-|
E----------------------------------------------|

G-------------------------------------------------|
D-------------------------------------------------|
A-2-3-44444444444444444-2-0----------0----------0-|
E---------------------------222-0-0h2--222-0-0h2--|

Verse

G----------------------------------|
D----------------------------------|
A----------0----------0----------0-|
E-222-0-0h2--222-0-0h2--222-0-0h2--|
  Feels so cold     walk  with

G---------------------------------------------|
D----------0----------0----------0----------0-|
A-222-0-0h2--222-0-0h2--222-0-0h2--222-0-0h2--|
E---------------------------------------------|
  Me   feels  so cold      down by the family

G---------------------------------------------|
D---------------------------------------------|
A----------0----------0----------0----------0-|
E-222-0-0h2--222-0-0h2--222-0-0h2--222-0-0h2--|
  Tree

G---------------------------------------------|
D----------0----------0----------0----------0-|
A-222-0-0h2--222-0-0h2--222-0-0h2--222-0-0h2--|
E---------------------------------------------|

G------------|
D------------|
A----------0-|
E-222-0-0h2--|

Chorus

G----------------------------------------------|
D----------------------------------------------|
A-0-0-2-4-555555555555555-4-2-0000000000000000-|
E----------------------------------------------|

G--------------------------------------|
D--------------------------------------|
A-2-3-44444444444444444-2-0----------0-|
E---------------------------222-0-0h2--|

G----------------------------------------------|
D----------------------------------------------|
A-0-0-2-4-555555555555555-4-2-0000000000000000-|
E----------------------------------------------|

G-------------------------------------------------|
D-------------------------------------------------|
A-2-3-44444444444444444-2-0----------0----------0-|
E---------------------------222-0-0h2--222-0-0h2--|

Back to verse

back to Chorus

Bridge

G-------------------------------------------------------------------|
D-------------------------------------------------------------------|
A----------0----------0----------0----------0----------0----------0-|
E-222-0-0h2--222-0-0h2--222-0-0h2--222-0-0h2--222-0-0h2--222-0-0h2--|

play chorus
End on

G----------------------------------------------|
D----------------------------------------------|
A-0-0-2-4-555555555555555-4-2-0000000000000000-|
E----------------------------------------------|

G-----------------------------------------------------------|
D-----------------------------------------------------------|
A-2-3-44444444444444444444444444444444444444444444444444----|
E--------------------------------------------------------2~-|
Suggest correction
What's this?
You can suggest a correction to this tab. Community and Mods will review your correction and vote to approve or reject it.
comments
We did not receive enough feedback on this tab! Please rate:
print report bad tab
1 2 3 4 5
guest
You may want to rate the tab now too:
select rating
Please do not post tabs as comments. Select "correction" instead!